  0
SECTION
  2
HEADER
  9
$ACADVER
  1
AC1024
  9
$ACADMAINTVER
 70
     6
  9
$DWGCODEPAGE
  3
ANSI_1252
  9
$INSBASE
 10
0.0
 20
0.0
 30
0.0
  9
$EXTMIN
 10
1.000000000000000E+20
 20
1.000000000000000E+20
 30
1.000000000000000E+20
  9
$EXTMAX
 10
-1.000000000000000E+20
 20
-1.000000000000000E+20
 30
-1.000000000000000E+20
  9
$LIMMIN
 10
0.0
 20
0.0
  9
$LIMMAX
 10
12.0
 20
9.0
  9
$ORTHOMODE
 70
     0
  9
$REGENMODE
 70
     1
  9
$FILLMODE
 70
     1
  9
$QTEXTMODE
 70
     0
  9
$MIRRTEXT
 70
     1
  9
$LTSCALE
 40
1.0
  9
$ATTMODE
 70
     1
  9
$TEXTSIZE
 40
0.2
  9
$TRACEWID
 40
0.05
  9
$TEXTSTYLE
  7
Standard
  9
$CLAYER
  8
0
  9
$CELTYPE
  6
ByLayer
  9
$CECOLOR
 62
   256
  9
$CELTSCALE
 40
1.0
  9
$DISPSILH
 70
     0
  9
$DIMSCALE
 40
1.0
  9
$DIMASZ
 40
0.18
  9
$DIMEXO
 40
0.0625
  9
$DIMDLI
 40
0.38
  9
$DIMRND
 40
0.0
  9
$DIMDLE
 40
0.0
  9
$DIMEXE
 40
0.18
  9
$DIMTP
 40
0.0
  9
$DIMTM
 40
0.0
  9
$DIMTXT
 40
0.18
  9
$DIMCEN
 40
0.09
  9
$DIMTSZ
 40
0.0
  9
$DIMTOL
 70
     0
  9
$DIMLIM
 70
     0
  9
$DIMTIH
 70
     1
  9
$DIMTOH
 70
     1
  9
$DIMSE1
 70
     0
  9
$DIMSE2
 70
     0
  9
$DIMTAD
 70
     0
  9
$DIMZIN
 70
     0
  9
$DIMBLK
  1

  9
$DIMASO
 70
     1
  9
$DIMSHO
 70
     1
  9
$DIMPOST
  1

  9
$DIMAPOST
  1

  9
$DIMALT
 70
     0
  9
$DIMALTD
 70
     2
  9
$DIMALTF
 40
25.4
  9
$DIMLFAC
 40
1.0
  9
$DIMTOFL
 70
     0
  9
$DIMTVP
 40
0.0
  9
$DIMTIX
 70
     0
  9
$DIMSOXD
 70
     0
  9
$DIMSAH
 70
     0
  9
$DIMBLK1
  1

  9
$DIMBLK2
  1

  9
$DIMSTYLE
  2
Standard
  9
$DIMCLRD
 70
     0
  9
$DIMCLRE
 70
     0
  9
$DIMCLRT
 70
     0
  9
$DIMTFAC
 40
1.0
  9
$DIMGAP
 40
0.09
  9
$DIMJUST
 70
     0
  9
$DIMSD1
 70
     0
  9
$DIMSD2
 70
     0
  9
$DIMTOLJ
 70
     1
  9
$DIMTZIN
 70
     0
  9
$DIMALTZ
 70
     0
  9
$DIMALTTZ
 70
     0
  9
$DIMUPT
 70
     0
  9
$DIMDEC
 70
     4
  9
$DIMTDEC
 70
     4
  9
$DIMALTU
 70
     2
  9
$DIMALTTD
 70
     2
  9
$DIMTXSTY
  7
Standard
  9
$DIMAUNIT
 70
     0
  9
$DIMADEC
 70
     0
  9
$DIMALTRND
 40
0.0
  9
$DIMAZIN
 70
     0
  9
$DIMDSEP
 70
    46
  9
$DIMATFIT
 70
     3
  9
$DIMFRAC
 70
     0
  9
$DIMLDRBLK
  1

  9
$DIMLUNIT
 70
     2
  9
$DIMLWD
 70
    -2
  9
$DIMLWE
 70
    -2
  9
$DIMTMOVE
 70
     0
  9
$DIMFXL
 40
1.0
  9
$DIMFXLON
 70
     0
  9
$DIMJOGANG
 40
0.7853981633974483
  9
$DIMTFILL
 70
     0
  9
$DIMTFILLCLR
 70
     0
  9
$DIMARCSYM
 70
     0
  9
$DIMLTYPE
  6

  9
$DIMLTEX1
  6

  9
$DIMLTEX2
  6

  9
$DIMTXTDIRECTION
 70
     0
  9
$LUNITS
 70
     2
  9
$LUPREC
 70
     4
  9
$SKETCHINC
 40
0.1
  9
$FILLETRAD
 40
0.5
  9
$AUNITS
 70
     0
  9
$AUPREC
 70
     0
  9
$MENU
  1
.
  9
$ELEVATION
 40
0.0
  9
$PELEVATION
 40
0.0
  9
$THICKNESS
 40
0.0
  9
$LIMCHECK
 70
     0
  9
$CHAMFERA
 40
0.5
  9
$CHAMFERB
 40
0.5
  9
$CHAMFERC
 40
1.0
  9
$CHAMFERD
 40
0.0
  9
$SKPOLY
 70
     0
  9
$TDCREATE
 40
2456982.879108796
  9
$TDUCREATE
 40
2456983.08744213
  9
$TDUPDATE
 40
2456982.879108796
  9
$TDUUPDATE
 40
2456983.087442141
  9
$TDINDWG
 40
0.0000000116
  9
$TDUSRTIMER
 40
0.0000000116
  9
$USRTIMER
 70
     1
  9
$ANGBASE
 50
0.0
  9
$ANGDIR
 70
     0
  9
$PDMODE
 70
     0
  9
$PDSIZE
 40
0.0
  9
$PLINEWID
 40
0.0
  9
$SPLFRAME
 70
     0
  9
$SPLINETYPE
 70
     6
  9
$SPLINESEGS
 70
     8
  9
$HANDSEED
  5
22D
  9
$SURFTAB1
 70
     6
  9
$SURFTAB2
 70
     6
  9
$SURFTYPE
 70
     6
  9
$SURFU
 70
     6
  9
$SURFV
 70
     6
  9
$UCSBASE
  2

  9
$UCSNAME
  2

  9
$UCSORG
 10
0.0
 20
0.0
 30
0.0
  9
$UCSXDIR
 10
1.0
 20
0.0
 30
0.0
  9
$UCSYDIR
 10
0.0
 20
1.0
 30
0.0
  9
$UCSORTHOREF
  2

  9
$UCSORTHOVIEW
 70
     0
  9
$UCSORGTOP
 10
0.0
 20
0.0
 30
0.0
  9
$UCSORGBOTTOM
 10
0.0
 20
0.0
 30
0.0
  9
$UCSORGLEFT
 10
0.0
 20
0.0
 30
0.0
  9
$UCSORGRIGHT
 10
0.0
 20
0.0
 30
0.0
  9
$UCSORGFRONT
 10
0.0
 20
0.0
 30
0.0
  9
$UCSORGBACK
 10
0.0
 20
0.0
 30
0.0
  9
$PUCSBASE
  2

  9
$PUCSNAME
  2

  9
$PUCSORG
 10
0.0
 20
0.0
 30
0.0
  9
$PUCSXDIR
 10
1.0
 20
0.0
 30
0.0
  9
$PUCSYDIR
 10
0.0
 20
1.0
 30
0.0
  9
$PUCSORTHOREF
  2

  9
$PUCSORTHOVIEW
 70
     0
  9
$PUCSORGTOP
 10
0.0
 20
0.0
 30
0.0
  9
$PUCSORGBOTTOM
 10
0.0
 20
0.0
 30
0.0
  9
$PUCSORGLEFT
 10
0.0
 20
0.0
 30
0.0
  9
$PUCSORGRIGHT
 10
0.0
 20
0.0
 30
0.0
  9
$PUCSORGFRONT
 10
0.0
 20
0.0
 30
0.0
  9
$PUCSORGBACK
 10
0.0
 20
0.0
 30
0.0
  9
$USERI1
 70
     0
  9
$USERI2
 70
     0
  9
$USERI3
 70
     0
  9
$USERI4
 70
     0
  9
$USERI5
 70
     0
  9
$USERR1
 40
0.0
  9
$USERR2
 40
0.0
  9
$USERR3
 40
0.0
  9
$USERR4
 40
0.0
  9
$USERR5
 40
0.0
  9
$WORLDVIEW
 70
     1
  9
$SHADEDGE
 70
     3
  9
$SHADEDIF
 70
    70
  9
$TILEMODE
 70
     1
  9
$MAXACTVP
 70
    64
  9
$PINSBASE
 10
0.0
 20
0.0
 30
0.0
  9
$PLIMCHECK
 70
     0
  9
$PEXTMIN
 10
0.0
 20
0.0
 30
0.0
  9
$PEXTMAX
 10
0.0
 20
0.0
 30
0.0
  9
$PLIMMIN
 10
-0.25
 20
-0.25
  9
$PLIMMAX
 10
10.75
 20
8.25
  9
$UNITMODE
 70
     0
  9
$VISRETAIN
 70
     1
  9
$PLINEGEN
 70
     0
  9
$PSLTSCALE
 70
     1
  9
$TREEDEPTH
 70
  3020
  9
$CMLSTYLE
  2
Standard
  9
$CMLJUST
 70
     0
  9
$CMLSCALE
 40
1.0
  9
$PROXYGRAPHICS
 70
     1
  9
$MEASUREMENT
 70
     0
  9
$CELWEIGHT
370
    -1
  9
$ENDCAPS
280
     0
  9
$JOINSTYLE
280
     0
  9
$LWDISPLAY
290
     0
  9
$INSUNITS
 70
     1
  9
$HYPERLINKBASE
  1

  9
$STYLESHEET
  1

  9
$XEDIT
290
     1
  9
$CEPSNTYPE
380
     0
  9
$PSTYLEMODE
290
     1
  9
$FINGERPRINTGUID
  2
{48D71CBB-0F53-F9C8-D017-8B9B5861B08D}
  9
$VERSIONGUID
  2
{FAEB1C32-E019-11D5-929B-00C0DF256EC4}
  9
$EXTNAMES
290
     1
  9
$PSVPSCALE
 40
0.0
  9
$OLESTARTUP
290
     0
  9
$SORTENTS
280
   127
  9
$INDEXCTL
280
     0
  9
$HIDETEXT
280
     1
  9
$XCLIPFRAME
280
     2
  9
$HALOGAP
280
     0
  9
$OBSCOLOR
 70
   257
  9
$OBSLTYPE
280
     0
  9
$INTERSECTIONDISPLAY
280
     0
  9
$INTERSECTIONCOLOR
 70
   257
  9
$DIMASSOC
280
     2
  9
$PROJECTNAME
  1

  9
$CAMERADISPLAY
290
     0
  9
$LENSLENGTH
 40
50.0
  9
$CAMERAHEIGHT
 40
0.0
  9
$STEPSPERSEC
 40
2.0
  9
$STEPSIZE
 40
6.0
  9
$3DDWFPREC
 40
2.0
  9
$PSOLWIDTH
 40
0.25
  9
$PSOLHEIGHT
 40
4.0
  9
$LOFTANG1
 40
1.570796326794897
  9
$LOFTANG2
 40
1.570796326794897
  9
$LOFTMAG1
 40
0.0
  9
$LOFTMAG2
 40
0.0
  9
$LOFTPARAM
 70
     7
  9
$LOFTNORMALS
280
     1
  9
$LATITUDE
 40
37.795
  9
$LONGITUDE
 40
-122.394
  9
$NORTHDIRECTION
 40
0.0
  9
$TIMEZONE
 70
 -8000
  9
$LIGHTGLYPHDISPLAY
280
     1
  9
$TILEMODELIGHTSYNCH
280
     1
  9
$SOLIDHIST
280
     1
  9
$SHOWHIST
280
     1
  9
$DWFFRAME
280
     2
  9
$DGNFRAME
280
     2
  9
$REALWORLDSCALE
290
     1
  9
$INTERFERECOLOR
 62
   256
  9
$CSHADOW
280
     0
  9
$SHADOWPLANELOCATION
 40
0.0
  0
ENDSEC
  0
SECTION
  2
CLASSES
  0
CLASS
  1
ACDBDICTIONARYWDFLT
  2
AcDbDictionaryWithDefault
  3
ObjectDBX Classes
 90
        0
 91
        4
280
     0
281
     0
  0
CLASS
  1
VISUALSTYLE
  2
AcDbVisualStyle
  3
ObjectDBX Classes
 90
     4095
 91
        4
280
     0
281
     0
  0
CLASS
  1
MATERIAL
  2
AcDbMaterial
  3
ObjectDBX Classes
 90
     1153
 91
        4
280
     0
281
     0
  0
CLASS
  1
SCALE
  2
AcDbScale
  3
ObjectDBX Classes
 90
     1153
 91
        4
280
     0
281
     0
  0
CLASS
  1
DICTIONARYVAR
  2
AcDbDictionaryVar
  3
ObjectDBX Classes
 90
        0
 91
        4
280
     0
281
     0
  0
ENDSEC
  0
SECTION
  2
TABLES
  0
TABLE
  2
VPORT
  5
8
330
0
100
AcDbSymbolTable
 70
     1
  0
VPORT
  5
29
330
8
100
AcDbSymbolTableRecord
100
AcDbViewportTableRecord
  2
*Active
 70
     0
 10
0.0
 20
0.0
 11
1.0
 21
1.0
 12
7.93197050371873
 22
-10.42526693148524
 13
0.0
 23
0.0
 14
0.5
 24
0.5
 15
0.5
 25
0.5
 16
0.0
 26
0.0
 36
1.0
 17
0.0
 27
0.0
 37
0.0
 40
21.04396982758621
 41
0.7397078353253652
 42
50.0
 43
0.0
 44
0.0
 50
0.0
 51
0.0
 71
     0
 72
   100
 73
     1
 74
     3
 75
     0
 76
     0
 77
     0
 78
     0
281
     0
 65
     1
110
0.0
120
0.0
130
0.0
111
1.0
121
0.0
131
0.0
112
0.0
122
1.0
132
0.0
 79
     0
146
0.0
 60
     3
 61
     5
292
     1
282
     1
141
0.0
142
0.0
 63
   250
  0
ENDTAB
  0
TABLE
  2
LTYPE
  5
5
330
0
100
AcDbSymbolTable
 70
     3
  0
LTYPE
  5
14
330
5
100
AcDbSymbolTableRecord
100
AcDbLinetypeTableRecord
  2
ByBlock
 70
     0
  3

 72
    65
 73
     0
 40
0.0
  0
LTYPE
  5
15
330
5
100
AcDbSymbolTableRecord
100
AcDbLinetypeTableRecord
  2
ByLayer
 70
     0
  3

 72
    65
 73
     0
 40
0.0
  0
LTYPE
  5
16
330
5
100
AcDbSymbolTableRecord
100
AcDbLinetypeTableRecord
  2
Continuous
 70
     0
  3
Solid line
 72
    65
 73
     0
 40
0.0
  0
LTYPE
  5
5F
330
5
100
AcDbSymbolTableRecord
100
AcDbLinetypeTableRecord
  2
PC_DASH_1
 70
     0
  3
short-dash -- -- -- 
 72
    65
 73
     2
 40
0.1944444444444444
 49
0.125
 74
     0
 49
-0.0694444444444444
 74
     0
  0
LTYPE
  5
C7
330
5
100
AcDbSymbolTableRecord
100
AcDbLinetypeTableRecord
  2
PC_DASH_2
 70
     0
  3
short-dash - - - 
 72
    65
 73
     2
 40
0.0694444444444444
 49
0.0277777777777778
 74
     0
 49
-0.0416666666666667
 74
     0
  0
ENDTAB
  0
TABLE
  2
LAYER
  5
2
330
0
100
AcDbSymbolTable
 70
     2
  0
LAYER
  5
10
330
2
100
AcDbSymbolTableRecord
100
AcDbLayerTableRecord
  2
0
 70
     0
 62
     7
  6
Continuous
370
    -3
390
F
347
3E
  0
LAYER
  5
3F
330
2
100
AcDbSymbolTableRecord
100
AcDbLayerTableRecord
  2
Drawing
 70
     0
 62
     7
  6
Continuous
370
    -3
390
F
347
3E
  0
ENDTAB
  0
TABLE
  2
STYLE
  5
3
330
0
100
AcDbSymbolTable
 70
     1
  0
STYLE
  5
11
330
3
100
AcDbSymbolTableRecord
100
AcDbTextStyleTableRecord
  2
Standard
 70
     0
 40
0.0
 41
1.0
 50
0.0
 71
     0
 42
0.2
  3
txt
  4

  0
ENDTAB
  0
TABLE
  2
VIEW
  5
6
330
0
100
AcDbSymbolTable
 70
     0
  0
ENDTAB
  0
TABLE
  2
UCS
  5
7
330
0
100
AcDbSymbolTable
 70
     0
  0
ENDTAB
  0
TABLE
  2
APPID
  5
9
330
0
100
AcDbSymbolTable
 70
     1
  0
APPID
  5
12
330
9
100
AcDbSymbolTableRecord
100
AcDbRegAppTableRecord
  2
ACAD
 70
     0
  0
ENDTAB
  0
TABLE
  2
DIMSTYLE
  5
A
330
0
100
AcDbSymbolTable
 70
     1
100
AcDbDimStyleTable
  0
DIMSTYLE
105
27
330
A
100
AcDbSymbolTableRecord
100
AcDbDimStyleTableRecord
  2
Standard
 70
     0
178
     0
340
11
  0
ENDTAB
  0
TABLE
  2
BLOCK_RECORD
  5
1
330
0
100
AcDbSymbolTable
 70
    39
  0
BLOCK_RECORD
  5
1F
330
1
100
AcDbSymbolTableRecord
100
AcDbBlockTableRecord
  2
*Model_Space
340
22
 70
     0
280
     1
281
     0
  0
BLOCK_RECORD
  5
14D
330
1
100
AcDbSymbolTableRecord
100
AcDbBlockTableRecord
  2
*Paper_Space
340
14E
 70
     0
280
     1
281
     0
  0
BLOCK_RECORD
  5
47
330
1
100
AcDbSymbolTableRecord
100
AcDbBlockTableRecord
  2
PD_452
340
0
102
{BLKREFS
331
72
102
}
 70
     0
280
     1
281
     0
  0
BLOCK_RECORD
  5
4F
330
1
100
AcDbSymbolTableRecord
100
AcDbBlockTableRecord
  2
PD_453
340
0
102
{BLKREFS
331
6E
102
}
 70
     0
280
     1
281
     0
  0
BLOCK_RECORD
  5
50
330
1
100
AcDbSymbolTableRecord
100
AcDbBlockTableRecord
  2
PD_454
340
0
102
{BLKREFS
331
63
102
}
 70
     0
280
     1
281
     0
  0
BLOCK_RECORD
  5
73
330
1
100
AcDbSymbolTableRecord
100
AcDbBlockTableRecord
  2
PD_455
340
0
102
{BLKREFS
331
9C
102
}
 70
     0
280
     1
281
     0
  0
BLOCK_RECORD
  5
9D
330
1
100
AcDbSymbolTableRecord
100
AcDbBlockTableRecord
  2
PD_456
340
0
102
{BLKREFS
331
E3
102
}
 70
     0
280
     1
281
     0
  0
BLOCK_RECORD
  5
E4
330
1
100
AcDbSymbolTableRecord
100
AcDbBlockTableRecord
  2
PD_457
340
0
102
{BLKREFS
331
14C
102
}
 70
     0
280
     1
281
     0
  0
BLOCK_RECORD
  5
F3
330
1
100
AcDbSymbolTableRecord
100
AcDbBlockTableRecord
  2
PD_458
340
0
102
{BLKREFS
331
118
102
}
 70
     0
280
     1
281
     0
  0
BLOCK_RECORD
  5
201
330
1
100
AcDbSymbolTableRecord
100
AcDbBlockTableRecord
  2
*Paper_Space9
340
202
 70
     0
280
     1
281
     0
  0
BLOCK_RECORD
  5
153
330
1
100
AcDbSymbolTableRecord
100
AcDbBlockTableRecord
  2
*Paper_Space10
340
154
 70
     0
280
     1
281
     0
  0
BLOCK_RECORD
  5
159
330
1
100
AcDbSymbolTableRecord
100
AcDbBlockTableRecord
  2
*Paper_Space11
340
15A
 70
     0
280
     1
281
     0
  0
BLOCK_RECORD
  5
15F
330
1
100
AcDbSymbolTableRecord
100
AcDbBlockTableRecord
  2
*Paper_Space12
340
160
 70
     0
280
     1
281
     0
  0
BLOCK_RECORD
  5
165
330
1
100
AcDbSymbolTableRecord
100
AcDbBlockTableRecord
  2
*Paper_Space13
340
166
 70
     0
280
     1
281
     0
  0
BLOCK_RECORD
  5
16B
330
1
100
AcDbSymbolTableRecord
100
AcDbBlockTableRecord
  2
*Paper_Space14
340
16C
 70
     0
280
     1
281
     0
  0
BLOCK_RECORD
  5
171
330
1
100
AcDbSymbolTableRecord
100
AcDbBlockTableRecord
  2
*Paper_Space15
340
172
 70
     0
280
     1
281
     0
  0
BLOCK_RECORD
  5
177
330
1
100
AcDbSymbolTableRecord
100
AcDbBlockTableRecord
  2
*Paper_Space16
340
178
 70
     0
280
     1
281
     0
  0
BLOCK_RECORD
  5
17D
330
1
100
AcDbSymbolTableRecord
100
AcDbBlockTableRecord
  2
*Paper_Space17
340
17E
 70
     0
280
     1
281
     0
  0
BLOCK_RECORD
  5
183
330
1
100
AcDbSymbolTableRecord
100
AcDbBlockTableRecord
  2
*Paper_Space18
340
184
 70
     0
280
     1
281
     0
  0
BLOCK_RECORD
  5
189
330
1
100
AcDbSymbolTableRecord
100
AcDbBlockTableRecord
  2
*Paper_Space19
340
18A
 70
     0
280
     1
281
     0
  0
BLOCK_RECORD
  5
18F
330
1
100
AcDbSymbolTableRecord
100
AcDbBlockTableRecord
  2
*Paper_Space20
340
190
 70
     0
280
     1
281
     0
  0
BLOCK_RECORD
  5
195
330
1
100
AcDbSymbolTableRecord
100
AcDbBlockTableRecord
  2
*Paper_Space21
340
196
 70
     0
280
     1
281
     0
  0
BLOCK_RECORD
  5
19B
330
1
100
AcDbSymbolTableRecord
100
AcDbBlockTableRecord
  2
*Paper_Space22
340
19C
 70
     0
280
     1
281
     0
  0
BLOCK_RECORD
  5
1A1
330
1
100
AcDbSymbolTableRecord
100
AcDbBlockTableRecord
  2
*Paper_Space23
340
1A2
 70
     0
280
     1
281
     0
  0
BLOCK_RECORD
  5
1A7
330
1
100
AcDbSymbolTableRecord
100
AcDbBlockTableRecord
  2
*Paper_Space24
340
1A8
 70
     0
280
     1
281
     0
  0
BLOCK_RECORD
  5
1AD
330
1
100
AcDbSymbolTableRecord
100
AcDbBlockTableRecord
  2
*Paper_Space25
340
1AE
 70
     0
280
     1
281
     0
  0
BLOCK_RECORD
  5
1B3
330
1
100
AcDbSymbolTableRecord
100
AcDbBlockTableRecord
  2
*Paper_Space26
340
1B4
 70
     0
280
     1
281
     0
  0
BLOCK_RECORD
  5
1B9
330
1
100
AcDbSymbolTableRecord
100
AcDbBlockTableRecord
  2
*Paper_Space27
340
1BA
 70
     0
280
     1
281
     0
  0
BLOCK_RECORD
  5
1BF
330
1
100
AcDbSymbolTableRecord
100
AcDbBlockTableRecord
  2
*Paper_Space28
340
1C0
 70
     0
280
     1
281
     0
  0
BLOCK_RECORD
  5
1C5
330
1
100
AcDbSymbolTableRecord
100
AcDbBlockTableRecord
  2
*Paper_Space29
340
1C6
 70
     0
280
     1
281
     0
  0
BLOCK_RECORD
  5
1CB
330
1
100
AcDbSymbolTableRecord
100
AcDbBlockTableRecord
  2
*Paper_Space30
340
1CC
 70
     0
280
     1
281
     0
  0
BLOCK_RECORD
  5
1D1
330
1
100
AcDbSymbolTableRecord
100
AcDbBlockTableRecord
  2
*Paper_Space31
340
1D2
 70
     0
280
     1
281
     0
  0
BLOCK_RECORD
  5
1D7
330
1
100
AcDbSymbolTableRecord
100
AcDbBlockTableRecord
  2
*Paper_Space32
340
1D8
 70
     0
280
     1
281
     0
  0
BLOCK_RECORD
  5
1DD
330
1
100
AcDbSymbolTableRecord
100
AcDbBlockTableRecord
  2
*Paper_Space33
340
1DE
 70
     0
280
     1
281
     0
  0
BLOCK_RECORD
  5
1E3
330
1
100
AcDbSymbolTableRecord
100
AcDbBlockTableRecord
  2
*Paper_Space34
340
1E4
 70
     0
280
     1
281
     0
  0
BLOCK_RECORD
  5
1E9
330
1
100
AcDbSymbolTableRecord
100
AcDbBlockTableRecord
  2
*Paper_Space35
340
1EA
 70
     0
280
     1
281
     0
  0
BLOCK_RECORD
  5
1EF
330
1
100
AcDbSymbolTableRecord
100
AcDbBlockTableRecord
  2
*Paper_Space36
340
1F0
 70
     0
280
     1
281
     0
  0
BLOCK_RECORD
  5
1F5
330
1
100
AcDbSymbolTableRecord
100
AcDbBlockTableRecord
  2
*Paper_Space37
340
1F6
 70
     0
280
     1
281
     0
  0
BLOCK_RECORD
  5
1FB
330
1
100
AcDbSymbolTableRecord
100
AcDbBlockTableRecord
  2
*Paper_Space38
340
1FC
 70
     0
280
     1
281
     0
  0
ENDTAB
  0
ENDSEC
  0
SECTION
  2
BLOCKS
  0
BLOCK
  5
20
330
1F
100
AcDbEntity
  8
0
100
AcDbBlockBegin
  2
*Model_Space
 70
     0
 10
0.0
 20
0.0
 30
0.0
  3
*Model_Space
  1

  0
ENDBLK
  5
21
330
1F
100
AcDbEntity
  8
0
100
AcDbBlockEnd
  0
BLOCK
  5
14F
330
14D
100
AcDbEntity
 67
     1
  8
0
100
AcDbBlockBegin
  2
*Paper_Space
 70
     0
 10
0.0
 20
0.0
 30
0.0
  3
*Paper_Space
  1

  0
ENDBLK
  5
150
330
14D
100
AcDbEntity
 67
     1
  8
0
100
AcDbBlockEnd
  0
BLOCK
  5
70
330
47
100
AcDbEntity
  8
0
100
AcDbBlockBegin
  2
PD_452
 70
     0
 10
0.0
 20
0.0
 30
0.0
  3
PD_452
  1

  0
POLYLINE
  5
48
330
47
100
AcDbEntity
  8
Drawing
 62
    12
420
 14419974
100
AcDb2dPolyline
 66
     1
 10
0.0
 20
0.0
 30
0.0
  0
VERTEX
  5
49
330
48
100
AcDbEntity
  8
Drawing
 62
    12
420
 14419974
100
AcDbVertex
100
AcDb2dVertex
 10
1.993623120554115
 20
-2.335203793175203
 30
0.0
  0
VERTEX
  5
4A
330
48
100
AcDbEntity
  8
Drawing
 62
    12
420
 14419974
100
AcDbVertex
100
AcDb2dVertex
 10
8.506376879445884
 20
-2.335203793175203
 30
0.0
  0
VERTEX
  5
4B
330
48
100
AcDbEntity
  8
Drawing
 62
    12
420
 14419974
100
AcDbVertex
100
AcDb2dVertex
 10
8.506376879445884
 20
-8.88701842904702
 30
0.0
  0
VERTEX
  5
4C
330
48
100
AcDbEntity
  8
Drawing
 62
    12
420
 14419974
100
AcDbVertex
100
AcDb2dVertex
 10
1.993623120554115
 20
-8.88701842904702
 30
0.0
  0
VERTEX
  5
4D
330
48
100
AcDbEntity
  8
Drawing
 62
    12
420
 14419974
100
AcDbVertex
100
AcDb2dVertex
 10
1.993623120554115
 20
-2.335203793175203
 30
0.0
  0
SEQEND
  5
4E
330
48
100
AcDbEntity
  8
Drawing
 62
    12
420
 14419974
  0
INSERT
  5
6E
330
47
100
AcDbEntity
  8
Drawing
100
AcDbBlockReference
  2
PD_453
 10
0.0
 20
0.0
 30
0.0
  0
MTEXT
  5
6F
330
47
100
AcDbEntity
  8
Drawing
 62
     7
100
AcDbMText
 10
1.979929700414477
 20
-9.45421694526992
 30
0.0
 40
0.3287037037037037
 41
2.222222222222222
 46
0.2
 71
     1
 72
     1
  1
\pxsm1.00;\fFuturist Fixed-width|b0|i0|c0|p0.3287;\W0.90;FRONT
 73
     1
 44
1.0
1001
ACAD
1000
ACAD_MTEXT_DEFINED_HEIGHT_BEGIN
1070
    46
1040
0.2
1000
ACAD_MTEXT_DEFINED_HEIGHT_END
  0
ENDBLK
  5
71
330
47
100
AcDbEntity
  8
0
100
AcDbBlockEnd
  0
BLOCK
  5
6C
330
4F
100
AcDbEntity
  8
0
100
AcDbBlockBegin
  2
PD_453
 70
     0
 10
0.0
 20
0.0
 30
0.0
  3
PD_453
  1

  0
INSERT
  5
63
330
4F
100
AcDbEntity
  8
Drawing
100
AcDbBlockReference
  2
PD_454
 10
0.0
 20
0.0
 30
0.0
  0
POLYLINE
  5
64
330
4F
100
AcDbEntity
  8
Drawing
 62
     7
100
AcDb2dPolyline
 66
     1
 10
0.0
 20
0.0
 30
0.0
  0
VERTEX
  5
65
330
64
100
AcDbEntity
  8
Drawing
 62
     7
100
AcDbVertex
100
AcDb2dVertex
 10
2.814329771910331
 20
-3.182294801744409
 30
0.0
  0
VERTEX
  5
66
330
64
100
AcDbEntity
  8
Drawing
 62
     7
100
AcDbVertex
100
AcDb2dVertex
 10
7.685670228089669
 20
-3.182294801744409
 30
0.0
  0
VERTEX
  5
67
330
64
100
AcDbEntity
  8
Drawing
 62
     7
100
AcDbVertex
100
AcDb2dVertex
 10
7.685670228089669
 20
-8.066311777690803
 30
0.0
  0
VERTEX
  5
68
330
64
100
AcDbEntity
  8
Drawing
 62
     7
100
AcDbVertex
100
AcDb2dVertex
 10
2.814329771910331
 20
-8.066311777690803
 30
0.0
  0
VERTEX
  5
69
330
64
100
AcDbEntity
  8
Drawing
 62
     7
100
AcDbVertex
100
AcDb2dVertex
 10
2.814329771910331
 20
-3.182294801744409
 30
0.0
  0
SEQEND
  5
6A
330
64
100
AcDbEntity
  8
Drawing
 62
     7
  0
LINE
  5
6B
330
4F
100
AcDbEntity
  8
Drawing
 62
     7
100
AcDbLine
 10
2.814329771910331
 20
-3.320286194686811
 30
0.0
 11
7.685670228089669
 21
-3.320286194686811
 31
0.0
  0
ENDBLK
  5
6D
330
4F
100
AcDbEntity
  8
0
100
AcDbBlockEnd
  0
BLOCK
  5
61
330
50
100
AcDbEntity
  8
0
100
AcDbBlockBegin
  2
PD_454
 70
     0
 10
0.0
 20
0.0
 30
0.0
  3
PD_454
  1

  0
POLYLINE
  5
51
330
50
100
AcDbEntity
  8
Drawing
 62
     7
100
AcDb2dPolyline
 66
     1
 10
0.0
 20
0.0
 30
0.0
  0
VERTEX
  5
52
330
51
100
AcDbEntity
  8
Drawing
 62
     7
100
AcDbVertex
100
AcDb2dVertex
 10
1.993623120554115
 20
-2.335203793175203
 30
0.0
  0
VERTEX
  5
53
330
51
100
AcDbEntity
  8
Drawing
 62
     7
100
AcDbVertex
100
AcDb2dVertex
 10
8.506376879445884
 20
-2.335203793175203
 30
0.0
  0
VERTEX
  5
54
330
51
100
AcDbEntity
  8
Drawing
 62
     7
100
AcDbVertex
100
AcDb2dVertex
 10
8.506376879445884
 20
-8.88701842904702
 30
0.0
  0
VERTEX
  5
55
330
51
100
AcDbEntity
  8
Drawing
 62
     7
100
AcDbVertex
100
AcDb2dVertex
 10
1.993623120554115
 20
-8.88701842904702
 30
0.0
  0
VERTEX
  5
56
330
51
100
AcDbEntity
  8
Drawing
 62
     7
100
AcDbVertex
100
AcDb2dVertex
 10
1.993623120554115
 20
-2.335203793175203
 30
0.0
  0
SEQEND
  5
57
330
51
100
AcDbEntity
  8
Drawing
 62
     7
  0
POLYLINE
  5
58
330
50
100
AcDbEntity
  8
Drawing
 62
     7
100
AcDb2dPolyline
 66
     1
 10
0.0
 20
0.0
 30
0.0
  0
VERTEX
  5
59
330
58
100
AcDbEntity
  8
Drawing
 62
     7
100
AcDbVertex
100
AcDb2dVertex
 10
2.743623120554115
 20
-3.085203793175203
 30
0.0
  0
VERTEX
  5
5A
330
58
100
AcDbEntity
  8
Drawing
 62
     7
100
AcDbVertex
100
AcDb2dVertex
 10
7.756376879445885
 20
-3.085203793175203
 30
0.0
  0
VERTEX
  5
5B
330
58
100
AcDbEntity
  8
Drawing
 62
     7
100
AcDbVertex
100
AcDb2dVertex
 10
7.756376879445885
 20
-8.13701842904702
 30
0.0
  0
VERTEX
  5
5C
330
58
100
AcDbEntity
  8
Drawing
 62
     7
100
AcDbVertex
100
AcDb2dVertex
 10
2.743623120554115
 20
-8.13701842904702
 30
0.0
  0
VERTEX
  5
5D
330
58
100
AcDbEntity
  8
Drawing
 62
     7
100
AcDbVertex
100
AcDb2dVertex
 10
2.743623120554115
 20
-3.085203793175203
 30
0.0
  0
SEQEND
  5
5E
330
58
100
AcDbEntity
  8
Drawing
 62
     7
  0
CIRCLE
  5
60
330
50
100
AcDbEntity
  8
Drawing
  6
PC_DASH_1
 62
     7
100
AcDbCircle
 10
5.250000000000001
 20
-5.611111111111111
 30
0.0
 40
2.017795177689401
  0
ENDBLK
  5
62
330
50
100
AcDbEntity
  8
0
100
AcDbBlockEnd
  0
BLOCK
  5
9A
330
73
100
AcDbEntity
  8
0
100
AcDbBlockBegin
  2
PD_455
 70
     0
 10
0.0
 20
0.0
 30
0.0
  3
PD_455
  1

  0
POLYLINE
  5
74
330
73
100
AcDbEntity
  8
Drawing
 62
    12
420
 14419974
100
AcDb2dPolyline
 66
     1
 10
0.0
 20
0.0
 30
0.0
  0
VERTEX
  5
75
330
74
100
AcDbEntity
  8
Drawing
 62
    12
420
 14419974
100
AcDbVertex
100
AcDb2dVertex
 10
3.35899147249479
 20
-10.84233839495663
 30
0.0
  0
VERTEX
  5
76
330
74
100
AcDbEntity
  8
Drawing
 62
    12
420
 14419974
100
AcDbVertex
100
AcDb2dVertex
 10
7.352204546987435
 20
-10.84233839495663
 30
0.0
  0
VERTEX
  5
77
330
74
100
AcDbEntity
  8
Drawing
 62
    12
420
 14419974
100
AcDbVertex
100
AcDb2dVertex
 10
7.352204546987435
 20
-12.59233839495663
 30
0.0
  0
VERTEX
  5
78
330
74
100
AcDbEntity
  8
Drawing
 62
    12
420
 14419974
100
AcDbVertex
100
AcDb2dVertex
 10
3.35899147249479
 20
-12.59233839495663
 30
0.0
  0
VERTEX
  5
79
330
74
100
AcDbEntity
  8
Drawing
 62
    12
420
 14419974
100
AcDbVertex
100
AcDb2dVertex
 10
3.35899147249479
 20
-10.84233839495663
 30
0.0
  0
SEQEND
  5
7A
330
74
100
AcDbEntity
  8
Drawing
 62
    12
420
 14419974
  0
POLYLINE
  5
7B
330
73
100
AcDbEntity
  8
Drawing
 62
    12
420
 14419974
100
AcDb2dPolyline
 66
     1
 10
0.0
 20
0.0
 30
0.0
  0
VERTEX
  5
7C
330
7B
100
AcDbEntity
  8
Drawing
 62
    12
420
 14419974
100
AcDbVertex
100
AcDb2dVertex
 10
2.121542952078421
 20
-12.59383497329873
 30
0.0
  0
VERTEX
  5
7D
330
7B
100
AcDbEntity
  8
Drawing
 62
    12
420
 14419974
100
AcDbVertex
100
AcDb2dVertex
 10
8.609041962018576
 20
-12.59383497329873
 30
0.0
  0
VERTEX
  5
7E
330
7B
100
AcDbEntity
  8
Drawing
 62
    12
420
 14419974
100
AcDbVertex
100
AcDb2dVertex
 10
8.609041962018576
 20
-13.09383497329873
 30
0.0
  0
VERTEX
  5
7F
330
7B
100
AcDbEntity
  8
Drawing
 62
    12
420
 14419974
100
AcDbVertex
100
AcDb2dVertex
 10
2.121542952078421
 20
-13.09383497329873
 30
0.0
  0
VERTEX
  5
80
330
7B
100
AcDbEntity
  8
Drawing
 62
    12
420
 14419974
100
AcDbVertex
100
AcDb2dVertex
 10
2.121542952078421
 20
-12.59383497329873
 30
0.0
  0
SEQEND
  5
81
330
7B
100
AcDbEntity
  8
Drawing
 62
    12
420
 14419974
  0
POLYLINE
  5
82
330
73
100
AcDbEntity
  8
Drawing
 62
     7
100
AcDb2dPolyline
 66
     1
 10
0.0
 20
0.0
 30
0.0
  0
VERTEX
  5
83
330
82
100
AcDbEntity
  8
Drawing
 62
     7
100
AcDbVertex
100
AcDb2dVertex
 10
2.121542952078423
 20
-13.09383497329873
 30
0.0
  0
VERTEX
  5
84
330
82
100
AcDbEntity
  8
Drawing
 62
     7
100
AcDbVertex
100
AcDb2dVertex
 10
2.121542952078423
 20
-12.59383497329873
 30
0.0
  0
VERTEX
  5
85
330
82
100
AcDbEntity
  8
Drawing
 62
     7
100
AcDbVertex
100
AcDb2dVertex
 10
8.609041962018576
 20
-12.59383497329873
 30
0.0
  0
VERTEX
  5
86
330
82
100
AcDbEntity
  8
Drawing
 62
     7
100
AcDbVertex
100
AcDb2dVertex
 10
8.609041962018576
 20
-13.09383497329873
 30
0.0
  0
VERTEX
  5
87
330
82
100
AcDbEntity
  8
Drawing
 62
     7
100
AcDbVertex
100
AcDb2dVertex
 10
2.121542952078423
 20
-13.09383497329873
 30
0.0
  0
SEQEND
  5
88
330
82
100
AcDbEntity
  8
Drawing
 62
     7
  0
POLYLINE
  5
89
330
73
100
AcDbEntity
  8
Drawing
 62
     7
100
AcDb2dPolyline
 66
     1
 10
0.0
 20
0.0
 30
0.0
  0
VERTEX
  5
8A
330
89
100
AcDbEntity
  8
Drawing
 62
     7
100
AcDbVertex
100
AcDb2dVertex
 10
3.35899147249479
 20
-12.59233839495663
 30
0.0
  0
VERTEX
  5
8B
330
89
100
AcDbEntity
  8
Drawing
 62
     7
100
AcDbVertex
100
AcDb2dVertex
 10
3.35899147249479
 20
-10.84233839495663
 30
0.0
  0
VERTEX
  5
8C
330
89
100
AcDbEntity
  8
Drawing
 62
     7
100
AcDbVertex
100
AcDb2dVertex
 10
7.352204546987435
 20
-10.84233839495663
 30
0.0
  0
VERTEX
  5
8D
330
89
100
AcDbEntity
  8
Drawing
 62
     7
100
AcDbVertex
100
AcDb2dVertex
 10
7.352204546987435
 20
-12.59233839495663
 30
0.0
  0
VERTEX
  5
8E
330
89
100
AcDbEntity
  8
Drawing
 62
     7
100
AcDbVertex
100
AcDb2dVertex
 10
3.35899147249479
 20
-12.59233839495663
 30
0.0
  0
SEQEND
  5
8F
330
89
100
AcDbEntity
  8
Drawing
 62
     7
  0
LINE
  5
90
330
73
100
AcDbEntity
  8
Drawing
  6
PC_DASH_1
 62
     7
100
AcDbLine
 10
2.871542952078421
 20
-13.09383497329873
 30
0.0
 11
2.871542952078421
 21
-12.59383497329873
 31
0.0
  0
LINE
  5
91
330
73
100
AcDbEntity
  8
Drawing
  6
PC_DASH_1
 62
     7
100
AcDbLine
 10
7.859041962018576
 20
-13.09383497329873
 30
0.0
 11
7.859041962018576
 21
-12.59383497329873
 31
0.0
  0
LINE
  5
92
330
73
100
AcDbEntity
  8
Drawing
  6
PC_DASH_1
 62
     7
100
AcDbLine
 10
7.80423780067072
 20
-12.81423744309953
 30
0.0
 11
2.940758946047374
 21
-12.81423744309953
 31
0.0
  0
LINE
  5
93
330
73
100
AcDbEntity
  8
Drawing
  6
PC_DASH_1
 62
     7
100
AcDbLine
 10
7.804237800670724
 20
-12.68746341911958
 30
0.0
 11
7.804237800670724
 21
-12.81423744309953
 31
0.0
  0
POLYLINE
  5
94
330
73
100
AcDbEntity
  8
Drawing
  6
PC_DASH_1
 62
     7
100
AcDb2dPolyline
 66
     1
 10
0.0
 20
0.0
 30
0.0
  0
VERTEX
  5
95
330
94
100
AcDbEntity
  8
Drawing
  6
PC_DASH_1
 62
     7
100
AcDbVertex
100
AcDb2dVertex
 10
7.804237800670724
 20
-12.68746341911958
 30
0.0
  0
VERTEX
  5
96
330
94
100
AcDbEntity
  8
Drawing
  6
PC_DASH_1
 62
     7
100
AcDbVertex
100
AcDb2dVertex
 10
2.940758946047374
 20
-12.68746341911958
 30
0.0
  0
VERTEX
  5
97
330
94
100
AcDbEntity
  8
Drawing
  6
PC_DASH_1
 62
     7
100
AcDbVertex
100
AcDb2dVertex
 10
2.940758946047374
 20
-12.81423744309953
 30
0.0
  0
SEQEND
  5
98
330
94
100
AcDbEntity
  8
Drawing
  6
PC_DASH_1
 62
     7
  0
MTEXT
  5
99
330
73
100
AcDbEntity
  8
Drawing
 62
     7
100
AcDbMText
 10
1.979929700414477
 20
-13.48191026961035
 30
0.0
 40
0.3287037037037037
 41
1.333333333333333
 46
0.2
 71
     1
 72
     1
  1
\pxsm1.00;\fFuturist Fixed-width|b0|i0|c0|p0.3287;\W0.90;TOP
 73
     1
 44
1.0
1001
ACAD
1000
ACAD_MTEXT_DEFINED_HEIGHT_BEGIN
1070
    46
1040
0.2
1000
ACAD_MTEXT_DEFINED_HEIGHT_END
  0
ENDBLK
  5
9B
330
73
100
AcDbEntity
  8
0
100
AcDbBlockEnd
  0
BLOCK
  5
E1
330
9D
100
AcDbEntity
  8
0
100
AcDbBlockBegin
  2
PD_456
 70
     0
 10
0.0
 20
0.0
 30
0.0
  3
PD_456
  1

  0
POLYLINE
  5
9E
330
9D
100
AcDbEntity
  8
Drawing
 62
    12
420
 14419974
100
AcDb2dPolyline
 66
     1
 10
0.0
 20
0.0
 30
0.0
  0
VERTEX
  5
9F
330
9E
100
AcDbEntity
  8
Drawing
 62
    12
420
 14419974
100
AcDbVertex
100
AcDb2dVertex
 10
11.20432415904732
 20
-3.604810126557399
 30
0.0
  0
VERTEX
  5
A0
330
9E
100
AcDbEntity
  8
Drawing
 62
    12
420
 14419974
100
AcDbVertex
100
AcDb2dVertex
 10
12.95432415904732
 20
-3.604810126557399
 30
0.0
  0
VERTEX
  5
A1
330
9E
100
AcDbEntity
  8
Drawing
 62
    12
420
 14419974
100
AcDbVertex
100
AcDb2dVertex
 10
12.95432415904732
 20
-7.598023201050046
 30
0.0
  0
VERTEX
  5
A2
330
9E
100
AcDbEntity
  8
Drawing
 62
    12
420
 14419974
100
AcDbVertex
100
AcDb2dVertex
 10
11.20432415904732
 20
-7.598023201050046
 30
0.0
  0
VERTEX
  5
A3
330
9E
100
AcDbEntity
  8
Drawing
 62
    12
420
 14419974
100
AcDbVertex
100
AcDb2dVertex
 10
11.20432415904732
 20
-3.604810126557399
 30
0.0
  0
SEQEND
  5
A4
330
9E
100
AcDbEntity
  8
Drawing
 62
    12
420
 14419974
  0
POLYLINE
  5
A5
330
9D
100
AcDbEntity
  8
Drawing
 62
    12
420
 14419974
100
AcDb2dPolyline
 66
     1
 10
0.0
 20
0.0
 30
0.0
  0
VERTEX
  5
A6
330
A5
100
AcDbEntity
  8
Drawing
 62
    12
420
 14419974
100
AcDbVertex
100
AcDb2dVertex
 10
10.70282758070523
 20
-2.367361606141033
 30
0.0
  0
VERTEX
  5
A7
330
A5
100
AcDbEntity
  8
Drawing
 62
    12
420
 14419974
100
AcDbVertex
100
AcDb2dVertex
 10
11.20282758070523
 20
-2.367361606141033
 30
0.0
  0
VERTEX
  5
A8
330
A5
100
AcDbEntity
  8
Drawing
 62
    12
420
 14419974
100
AcDbVertex
100
AcDb2dVertex
 10
11.20282758070523
 20
-8.854860616081186
 30
0.0
  0
VERTEX
  5
A9
330
A5
100
AcDbEntity
  8
Drawing
 62
    12
420
 14419974
100
AcDbVertex
100
AcDb2dVertex
 10
10.70282758070523
 20
-8.854860616081186
 30
0.0
  0
VERTEX
  5
AA
330
A5
100
AcDbEntity
  8
Drawing
 62
    12
420
 14419974
100
AcDbVertex
100
AcDb2dVertex
 10
10.70282758070523
 20
-2.367361606141033
 30
0.0
  0
SEQEND
  5
AB
330
A5
100
AcDbEntity
  8
Drawing
 62
    12
420
 14419974
  0
POLYLINE
  5
AC
330
9D
100
AcDbEntity
  8
Drawing
 62
     7
100
AcDb2dPolyline
 66
     1
 10
0.0
 20
0.0
 30
0.0
  0
VERTEX
  5
AD
330
AC
100
AcDbEntity
  8
Drawing
 62
     7
100
AcDbVertex
100
AcDb2dVertex
 10
10.70282758070523
 20
-2.367361606141033
 30
0.0
  0
VERTEX
  5
AE
330
AC
100
AcDbEntity
  8
Drawing
 62
     7
100
AcDbVertex
100
AcDb2dVertex
 10
11.20282758070523
 20
-2.367361606141033
 30
0.0
  0
VERTEX
  5
AF
330
AC
100
AcDbEntity
  8
Drawing
 62
     7
100
AcDbVertex
100
AcDb2dVertex
 10
11.20282758070523
 20
-8.854860616081186
 30
0.0
  0
VERTEX
  5
B0
330
AC
100
AcDbEntity
  8
Drawing
 62
     7
100
AcDbVertex
100
AcDb2dVertex
 10
10.70282758070523
 20
-8.854860616081186
 30
0.0
  0
VERTEX
  5
B1
330
AC
100
AcDbEntity
  8
Drawing
 62
     7
100
AcDbVertex
100
AcDb2dVertex
 10
10.70282758070523
 20
-2.367361606141033
 30
0.0
  0
SEQEND
  5
B2
330
AC
100
AcDbEntity
  8
Drawing
 62
     7
  0
POLYLINE
  5
B3
330
9D
100
AcDbEntity
  8
Drawing
 62
     7
100
AcDb2dPolyline
 66
     1
 10
0.0
 20
0.0
 30
0.0
  0
VERTEX
  5
B4
330
B3
100
AcDbEntity
  8
Drawing
 62
     7
100
AcDbVertex
100
AcDb2dVertex
 10
11.20432415904732
 20
-3.604810126557399
 30
0.0
  0
VERTEX
  5
B5
330
B3
100
AcDbEntity
  8
Drawing
 62
     7
100
AcDbVertex
100
AcDb2dVertex
 10
12.95432415904732
 20
-3.604810126557399
 30
0.0
  0
VERTEX
  5
B6
330
B3
100
AcDbEntity
  8
Drawing
 62
     7
100
AcDbVertex
100
AcDb2dVertex
 10
12.95432415904732
 20
-7.598023201050046
 30
0.0
  0
VERTEX
  5
B7
330
B3
100
AcDbEntity
  8
Drawing
 62
     7
100
AcDbVertex
100
AcDb2dVertex
 10
11.20432415904732
 20
-7.598023201050046
 30
0.0
  0
VERTEX
  5
B8
330
B3
100
AcDbEntity
  8
Drawing
 62
     7
100
AcDbVertex
100
AcDb2dVertex
 10
11.20432415904732
 20
-3.604810126557399
 30
0.0
  0
SEQEND
  5
B9
330
B3
100
AcDbEntity
  8
Drawing
 62
     7
  0
LINE
  5
BA
330
9D
100
AcDbEntity
  8
Drawing
  6
PC_DASH_1
 62
     7
100
AcDbLine
 10
10.70282758070523
 20
-3.117361606141033
 30
0.0
 11
11.20282758070523
 21
-3.117361606141033
 31
0.0
  0
LINE
  5
BB
330
9D
100
AcDbEntity
  8
Drawing
  6
PC_DASH_1
 62
     7
100
AcDbLine
 10
10.70282758070523
 20
-8.104860616081186
 30
0.0
 11
11.20282758070523
 21
-8.104860616081186
 31
0.0
  0
POLYLINE
  5
BC
330
9D
100
AcDbEntity
  8
Drawing
  6
PC_DASH_1
 62
     7
100
AcDb2dPolyline
 66
     1
 10
0.0
 20
0.0
 30
0.0
  0
VERTEX
  5
BD
330
BC
100
AcDbEntity
  8
Drawing
  6
PC_DASH_1
 62
     7
100
AcDbVertex
100
AcDb2dVertex
 10
11.06575844423776
 20
-3.197408470189384
 30
0.0
  0
VERTEX
  5
BE
330
BC
100
AcDbEntity
  8
Drawing
  6
PC_DASH_1
 62
     7
100
AcDbVertex
100
AcDb2dVertex
 10
11.03729845391897
 20
-3.205034301611901
 30
0.0
  0
VERTEX
  5
BF
330
BC
100
AcDbEntity
  8
Drawing
  6
PC_DASH_1
 62
     7
100
AcDbVertex
100
AcDb2dVertex
 10
11.0164642950227
 20
-3.225868460508173
 30
0.0
  0
VERTEX
  5
C0
330
BC
100
AcDbEntity
  8
Drawing
  6
PC_DASH_1
 62
     7
100
AcDbVertex
100
AcDb2dVertex
 10
11.00883846360019
 20
-3.254328450826961
 30
0.0
  0
VERTEX
  5
C1
330
BC
100
AcDbEntity
  8
Drawing
  6
PC_DASH_1
 62
     7
100
AcDbVertex
100
AcDb2dVertex
 10
11.0164642950227
 20
-3.28278844114575
 30
0.0
  0
VERTEX
  5
C2
330
BC
100
AcDbEntity
  8
Drawing
  6
PC_DASH_1
 62
     7
100
AcDbVertex
100
AcDb2dVertex
 10
11.03729845391897
 20
-3.30362260004202
 30
0.0
  0
VERTEX
  5
C3
330
BC
100
AcDbEntity
  8
Drawing
  6
PC_DASH_1
 62
     7
100
AcDbVertex
100
AcDb2dVertex
 10
11.06575844423776
 20
-3.311248431464537
 30
0.0
  0
VERTEX
  5
C4
330
BC
100
AcDbEntity
  8
Drawing
  6
PC_DASH_1
 62
     7
100
AcDbVertex
100
AcDb2dVertex
 10
11.06575844423776
 20
-8.022278676955555
 30
0.0
  0
VERTEX
  5
C5
330
BC
100
AcDbEntity
  8
Drawing
  6
PC_DASH_1
 62
     7
100
AcDbVertex
100
AcDb2dVertex
 10
11.19253246821771
 20
-8.022278676955557
 30
0.0
  0
SEQEND
  5
C6
330
BC
100
AcDbEntity
  8
Drawing
  6
PC_DASH_1
 62
     7
  0
POLYLINE
  5
C8
330
9D
100
AcDbEntity
  8
Drawing
  6
PC_DASH_2
 62
     7
100
AcDb2dPolyline
 66
     1
 10
0.0
 20
0.0
 30
0.0
  0
VERTEX
  5
C9
330
C8
100
AcDbEntity
  8
Drawing
  6
PC_DASH_2
 62
     7
100
AcDbVertex
100
AcDb2dVertex
 10
11.0792198086602
 20
-7.804791629731885
 30
0.0
  0
VERTEX
  5
CA
330
C8
100
AcDbEntity
  8
Drawing
  6
PC_DASH_2
 62
     7
100
AcDbVertex
100
AcDb2dVertex
 10
11.19160709160572
 20
-7.804791629731885
 30
0.0
  0
VERTEX
  5
CB
330
C8
100
AcDbEntity
  8
Drawing
  6
PC_DASH_2
 62
     7
100
AcDbVertex
100
AcDb2dVertex
 10
11.19160709160572
 20
-8.052094784312246
 30
0.0
  0
VERTEX
  5
CC
330
C8
100
AcDbEntity
  8
Drawing
  6
PC_DASH_2
 62
     7
100
AcDbVertex
100
AcDb2dVertex
 10
11.0792198086602
 20
-8.052094784312246
 30
0.0
  0
VERTEX
  5
CD
330
C8
100
AcDbEntity
  8
Drawing
  6
PC_DASH_2
 62
     7
100
AcDbVertex
100
AcDb2dVertex
 10
11.0792198086602
 20
-7.804791629731885
 30
0.0
  0
SEQEND
  5
CE
330
C8
100
AcDbEntity
  8
Drawing
  6
PC_DASH_2
 62
     7
  0
POLYLINE
  5
CF
330
9D
100
AcDbEntity
  8
Drawing
  6
PC_DASH_1
 62
     7
100
AcDb2dPolyline
 66
     1
 10
0.0
 20
0.0
 30
0.0
  0
VERTEX
  5
D0
330
CF
100
AcDbEntity
  8
Drawing
  6
PC_DASH_1
 62
     7
100
AcDbVertex
100
AcDb2dVertex
 10
11.0792198086602
 20
-3.227224577546075
 30
0.0
  0
VERTEX
  5
D1
330
CF
100
AcDbEntity
  8
Drawing
  6
PC_DASH_1
 62
     7
100
AcDbVertex
100
AcDb2dVertex
 10
11.05075981834141
 20
-3.234850408968593
 30
0.0
  0
VERTEX
  5
D2
330
CF
100
AcDbEntity
  8
Drawing
  6
PC_DASH_1
 62
     7
100
AcDbVertex
100
AcDb2dVertex
 10
11.02992565944514
 20
-3.255684567864864
 30
0.0
  0
VERTEX
  5
D3
330
CF
100
AcDbEntity
  8
Drawing
  6
PC_DASH_1
 62
     7
100
AcDbVertex
100
AcDb2dVertex
 10
11.02229982802262
 20
-3.284144558183652
 30
0.0
  0
VERTEX
  5
D4
330
CF
100
AcDbEntity
  8
Drawing
  6
PC_DASH_1
 62
     7
100
AcDbVertex
100
AcDb2dVertex
 10
11.02992565944514
 20
-3.312604548502441
 30
0.0
  0
VERTEX
  5
D5
330
CF
100
AcDbEntity
  8
Drawing
  6
PC_DASH_1
 62
     7
100
AcDbVertex
100
AcDb2dVertex
 10
11.05075981834141
 20
-3.333438707398711
 30
0.0
  0
VERTEX
  5
D6
330
CF
100
AcDbEntity
  8
Drawing
  6
PC_DASH_1
 62
     7
100
AcDbVertex
100
AcDb2dVertex
 10
11.0792198086602
 20
-3.341064538821229
 30
0.0
  0
VERTEX
  5
D7
330
CF
100
AcDbEntity
  8
Drawing
  6
PC_DASH_1
 62
     7
100
AcDbVertex
100
AcDb2dVertex
 10
11.0792198086602
 20
-8.052094784312246
 30
0.0
  0
VERTEX
  5
D8
330
CF
100
AcDbEntity
  8
Drawing
  6
PC_DASH_1
 62
     7
100
AcDbVertex
100
AcDb2dVertex
 10
11.20599383264015
 20
-8.05209478431225
 30
0.0
  0
SEQEND
  5
D9
330
CF
100
AcDbEntity
  8
Drawing
  6
PC_DASH_1
 62
     7
  0
ARC
  5
DA
330
9D
100
AcDbEntity
  8
Drawing
  6
PC_DASH_1
 62
     7
100
AcDbCircle
 10
11.0792198086602
 20
-3.284144558183652
 30
0.0
 40
0.0569199806375767
100
AcDbArc
 50
90.0
 51
270.0
  0
LINE
  5
DB
330
9D
100
AcDbEntity
  8
Drawing
  6
PC_DASH_1
 62
     7
100
AcDbLine
 10
11.0792198086602
 20
-8.052094784312246
 30
0.0
 11
11.0792198086602
 21
-3.341064538821229
 31
0.0
  0
LINE
  5
DC
330
9D
100
AcDbEntity
  8
Drawing
  6
PC_DASH_1
 62
     7
100
AcDbLine
 10
11.20599383264015
 20
-8.05209478431225
 30
0.0
 11
11.0792198086602
 21
-8.05209478431225
 31
0.0
  0
LINE
  5
DD
330
9D
100
AcDbEntity
  8
Drawing
  6
PC_DASH_1
 62
     7
100
AcDbLine
 10
11.0792198086602
 20
-3.227224577546075
 30
0.0
 11
11.14810784412439
 21
-3.227224577546075
 31
0.0
  0
LINE
  5
DE
330
9D
100
AcDbEntity
  8
Drawing
  6
PC_DASH_1
 62
     7
100
AcDbLine
 10
11.14810784412439
 20
-3.227224577546075
 30
0.0
 11
11.14810784412439
 21
-3.365930536151712
 31
0.0
  0
CIRCLE
  5
DF
330
9D
100
AcDbEntity
  8
Drawing
  6
PC_DASH_1
 62
     7
100
AcDbCircle
 10
11.09006702661925
 20
-3.284243921660722
 30
0.0
 40
0.0258543503171088
  0
MTEXT
  5
E0
330
9D
100
AcDbEntity
  8
Drawing
 62
     7
100
AcDbMText
 10
10.68050979858494
 20
-9.454216945269922
 30
0.0
 40
0.3287037037037037
 41
1.777777777777778
 46
0.2
 71
     1
 72
     1
  1
\pxsm1.00;\fFuturist Fixed-width|b0|i0|c0|p0.3287;\W0.90;SIDE
 73
     1
 44
1.0
1001
ACAD
1000
ACAD_MTEXT_DEFINED_HEIGHT_BEGIN
1070
    46
1040
0.2
1000
ACAD_MTEXT_DEFINED_HEIGHT_END
  0
ENDBLK
  5
E2
330
9D
100
AcDbEntity
  8
0
100
AcDbBlockEnd
  0
BLOCK
  5
14A
330
E4
100
AcDbEntity
  8
0
100
AcDbBlockBegin
  2
PD_457
 70
     0
 10
0.0
 20
0.0
 30
0.0
  3
PD_457
  1

  0
POLYLINE
  5
E5
330
E4
100
AcDbEntity
  8
Drawing
 62
    12
420
 14419974
100
AcDb2dPolyline
 66
     1
 10
0.0
 20
0.0
 30
0.0
  0
VERTEX
  5
E6
330
E5
100
AcDbEntity
  8
Drawing
 62
    12
420
 14419974
100
AcDbVertex
100
AcDb2dVertex
 10
11.2356542666536
 20
-11.58201669685059
 30
0.0
  0
VERTEX
  5
E7
330
E5
100
AcDbEntity
  8
Drawing
 62
    12
420
 14419974
100
AcDbVertex
100
AcDb2dVertex
 10
12.9856542666536
 20
-11.58201669685059
 30
0.0
  0
VERTEX
  5
E8
330
E5
100
AcDbEntity
  8
Drawing
 62
    12
420
 14419974
100
AcDbVertex
100
AcDb2dVertex
 10
12.9856542666536
 20
-15.56892878678953
 30
0.0
  0
VERTEX
  5
E9
330
E5
100
AcDbEntity
  8
Drawing
 62
    12
420
 14419974
100
AcDbVertex
100
AcDb2dVertex
 10
11.2356542666536
 20
-15.56892878678953
 30
0.0
  0
VERTEX
  5
EA
330
E5
100
AcDbEntity
  8
Drawing
 62
    12
420
 14419974
100
AcDbVertex
100
AcDb2dVertex
 10
11.2356542666536
 20
-11.58201669685059
 30
0.0
  0
SEQEND
  5
EB
330
E5
100
AcDbEntity
  8
Drawing
 62
    12
420
 14419974
  0
POLYLINE
  5
EC
330
E4
100
AcDbEntity
  8
Drawing
 62
    12
420
 14419974
100
AcDb2dPolyline
 66
     1
 10
0.0
 20
0.0
 30
0.0
  0
VERTEX
  5
ED
330
EC
100
AcDbEntity
  8
Drawing
 62
    12
420
 14419974
100
AcDbVertex
100
AcDb2dVertex
 10
10.73415768831151
 20
-11.08826719188052
 30
0.0
  0
VERTEX
  5
EE
330
EC
100
AcDbEntity
  8
Drawing
 62
    12
420
 14419974
100
AcDbVertex
100
AcDb2dVertex
 10
11.23415768831151
 20
-11.08826719188052
 30
0.0
  0
VERTEX
  5
EF
330
EC
100
AcDbEntity
  8
Drawing
 62
    12
420
 14419974
100
AcDbVertex
100
AcDb2dVertex
 10
11.23415768831151
 20
-16.07576620182067
 30
0.0
  0
VERTEX
  5
F0
330
EC
100
AcDbEntity
  8
Drawing
 62
    12
420
 14419974
100
AcDbVertex
100
AcDb2dVertex
 10
10.73415768831151
 20
-16.07576620182067
 30
0.0
  0
VERTEX
  5
F1
330
EC
100
AcDbEntity
  8
Drawing
 62
    12
420
 14419974
100
AcDbVertex
100
AcDb2dVertex
 10
10.73415768831151
 20
-11.08826719188052
 30
0.0
  0
SEQEND
  5
F2
330
EC
100
AcDbEntity
  8
Drawing
 62
    12
420
 14419974
  0
INSERT
  5
118
330
E4
100
AcDbEntity
  8
0
100
AcDbBlockReference
  2
PD_458
 10
0.0
 20
0.0
 30
0.0
  0
POLYLINE
  5
11B
330
E4
100
AcDbEntity
  8
Drawing
 62
     7
100
AcDb2dPolyline
 66
     1
 10
0.0
 20
0.0
 30
0.0
  0
VERTEX
  5
11C
330
11B
100
AcDbEntity
  8
Drawing
 62
     7
100
AcDbVertex
100
AcDb2dVertex
 10
11.09708855184404
 20
-15.77365888589245
 30
0.0
  0
VERTEX
  5
11D
330
11B
100
AcDbEntity
  8
Drawing
 62
     7
100
AcDbVertex
100
AcDb2dVertex
 10
11.20947583478956
 20
-15.77365888589245
 30
0.0
  0
VERTEX
  5
11E
330
11B
100
AcDbEntity
  8
Drawing
 62
     7
100
AcDbVertex
100
AcDb2dVertex
 10
11.20947583478956
 20
-16.02096204047281
 30
0.0
  0
VERTEX
  5
11F
330
11B
100
AcDbEntity
  8
Drawing
 62
     7
100
AcDbVertex
100
AcDb2dVertex
 10
11.09708855184404
 20
-16.02096204047281
 30
0.0
  0
VERTEX
  5
120
330
11B
100
AcDbEntity
  8
Drawing
 62
     7
100
AcDbVertex
100
AcDb2dVertex
 10
11.09708855184404
 20
-15.77365888589245
 30
0.0
  0
SEQEND
  5
121
330
11B
100
AcDbEntity
  8
Drawing
 62
     7
  0
LINE
  5
122
330
E4
100
AcDbEntity
  8
Drawing
 62
     7
100
AcDbLine
 10
10.73415768831151
 20
-10.33826719188052
 30
0.0
 11
11.23415768831151
 21
-10.33826719188052
 31
0.0
  0
LINE
  5
123
330
E4
100
AcDbEntity
  8
Drawing
 62
     7
100
AcDbLine
 10
11.23415768831151
 20
-16.64265365566309
 30
0.0
 11
11.23415768831151
 21
-16.82576620182067
 31
0.0
  0
LINE
  5
124
330
E4
100
AcDbEntity
  8
Drawing
 62
     7
100
AcDbLine
 10
11.23415768831151
 20
-10.33826719188052
 30
0.0
 11
11.23415768831151
 21
-10.51334279329348
 31
0.0
  0
LINE
  5
125
330
E4
100
AcDbEntity
  8
Drawing
 62
     7
100
AcDbLine
 10
11.23415768831151
 20
-16.82576620182067
 30
0.0
 11
10.73415768831151
 21
-16.82576620182067
 31
0.0
  0
LINE
  5
126
330
E4
100
AcDbEntity
  8
Drawing
 62
     7
100
AcDbLine
 10
10.73415768831151
 20
-11.08826719188052
 30
0.0
 11
10.73415768831151
 21
-10.33826719188052
 31
0.0
  0
LINE
  5
127
330
E4
100
AcDbEntity
  8
Drawing
 62
     7
100
AcDbLine
 10
10.73415768831151
 20
-16.82576620182067
 30
0.0
 11
10.73415768831151
 21
-16.07576620182067
 31
0.0
  0
POLYLINE
  5
128
330
E4
100
AcDbEntity
  8
Drawing
 62
     7
100
AcDb2dPolyline
 66
     1
 10
0.0
 20
0.0
 30
0.0
  0
VERTEX
  5
129
330
128
100
AcDbEntity
  8
Drawing
 62
     7
100
AcDbVertex
100
AcDb2dVertex
 10
11.2356542666536
 20
-11.58201669685059
 30
0.0
  0
VERTEX
  5
12A
330
128
100
AcDbEntity
  8
Drawing
 62
     7
100
AcDbVertex
100
AcDb2dVertex
 10
11.2356542666536
 20
-11.57571571229688
 30
0.0
  0
VERTEX
  5
12B
330
128
100
AcDbEntity
  8
Drawing
 62
     7
100
AcDbVertex
100
AcDb2dVertex
 10
12.9856542666536
 20
-11.57571571229688
 30
0.0
  0
VERTEX
  5
12C
330
128
100
AcDbEntity
  8
Drawing
 62
     7
100
AcDbVertex
100
AcDb2dVertex
 10
12.9856542666536
 20
-15.56892878678953
 30
0.0
  0
VERTEX
  5
12D
330
128
100
AcDbEntity
  8
Drawing
 62
     7
100
AcDbVertex
100
AcDb2dVertex
 10
11.2356542666536
 20
-15.56892878678953
 30
0.0
  0
SEQEND
  5
12E
330
128
100
AcDbEntity
  8
Drawing
 62
     7
  0
LINE
  5
12F
330
E4
100
AcDbEntity
  8
Drawing
 62
     7
100
AcDbLine
 10
10.73415768831151
 20
-11.08826719188052
 30
0.0
 11
11.23415768831151
 21
-11.08826719188052
 31
0.0
  0
LINE
  5
130
330
E4
100
AcDbEntity
  8
Drawing
 62
     7
100
AcDbLine
 10
10.73415768831151
 20
-16.07576620182067
 30
0.0
 11
11.23415768831151
 21
-16.07576620182067
 31
0.0
  0
POLYLINE
  5
131
330
E4
100
AcDbEntity
  8
Drawing
  6
PC_DASH_1
 62
     7
100
AcDb2dPolyline
 66
     1
 10
0.0
 20
0.0
 30
0.0
  0
VERTEX
  5
132
330
131
100
AcDbEntity
  8
Drawing
  6
PC_DASH_1
 62
     7
100
AcDbVertex
100
AcDb2dVertex
 10
11.09708855184404
 20
-11.19609183370664
 30
0.0
  0
VERTEX
  5
133
330
131
100
AcDbEntity
  8
Drawing
  6
PC_DASH_1
 62
     7
100
AcDbVertex
100
AcDb2dVertex
 10
11.06862856152525
 20
-11.20371766512916
 30
0.0
  0
VERTEX
  5
134
330
131
100
AcDbEntity
  8
Drawing
  6
PC_DASH_1
 62
     7
100
AcDbVertex
100
AcDb2dVertex
 10
11.04779440262898
 20
-11.22455182402543
 30
0.0
  0
VERTEX
  5
135
330
131
100
AcDbEntity
  8
Drawing
  6
PC_DASH_1
 62
     7
100
AcDbVertex
100
AcDb2dVertex
 10
11.04016857120646
 20
-11.25301181434422
 30
0.0
  0
VERTEX
  5
136
330
131
100
AcDbEntity
  8
Drawing
  6
PC_DASH_1
 62
     7
100
AcDbVertex
100
AcDb2dVertex
 10
11.04779440262898
 20
-11.28147180466301
 30
0.0
  0
VERTEX
  5
137
330
131
100
AcDbEntity
  8
Drawing
  6
PC_DASH_1
 62
     7
100
AcDbVertex
100
AcDb2dVertex
 10
11.06862856152525
 20
-11.30230596355928
 30
0.0
  0
VERTEX
  5
138
330
131
100
AcDbEntity
  8
Drawing
  6
PC_DASH_1
 62
     7
100
AcDbVertex
100
AcDb2dVertex
 10
11.09708855184404
 20
-11.3099317949818
 30
0.0
  0
VERTEX
  5
139
330
131
100
AcDbEntity
  8
Drawing
  6
PC_DASH_1
 62
     7
100
AcDbVertex
100
AcDb2dVertex
 10
11.09708855184404
 20
-16.02096204047281
 30
0.0
  0
VERTEX
  5
13A
330
131
100
AcDbEntity
  8
Drawing
  6
PC_DASH_1
 62
     7
100
AcDbVertex
100
AcDb2dVertex
 10
11.22386257582399
 20
-16.02096204047282
 30
0.0
  0
SEQEND
  5
13B
330
131
100
AcDbEntity
  8
Drawing
  6
PC_DASH_1
 62
     7
  0
ARC
  5
13C
330
E4
100
AcDbEntity
  8
Drawing
  6
PC_DASH_1
 62
     7
100
AcDbCircle
 10
11.09708855184404
 20
-11.25301181434422
 30
0.0
 40
0.0569199806375767
100
AcDbArc
 50
90.0
 51
270.0
  0
LINE
  5
13D
330
E4
100
AcDbEntity
  8
Drawing
 62
     7
100
AcDbLine
 10
11.09708855184404
 20
-16.02096204047281
 30
0.0
 11
11.09708855184404
 21
-11.3099317949818
 31
0.0
  0
LINE
  5
13E
330
E4
100
AcDbEntity
  8
Drawing
  6
PC_DASH_1
 62
     7
100
AcDbLine
 10
11.22386257582399
 20
-16.02096204047282
 30
0.0
 11
11.09708855184404
 21
-16.02096204047282
 31
0.0
  0
LINE
  5
13F
330
E4
100
AcDbEntity
  8
Drawing
 62
     7
100
AcDbLine
 10
11.23415768831151
 20
-11.57571571229688
 30
0.0
 11
11.23415768831151
 21
-11.08826719188052
 31
0.0
  0
LINE
  5
140
330
E4
100
AcDbEntity
  8
Drawing
 62
     7
100
AcDbLine
 10
11.23415768831151
 20
-16.07576620182067
 30
0.0
 11
11.23415768831151
 21
-15.56892878678953
 31
0.0
  0
LINE
  5
141
330
E4
100
AcDbEntity
  8
Drawing
 62
     7
100
AcDbLine
 10
11.09708855184404
 20
-11.19609183370664
 30
0.0
 11
11.16597658730823
 21
-11.19609183370664
 31
0.0
  0
LINE
  5
142
330
E4
100
AcDbEntity
  8
Drawing
 62
     7
100
AcDbLine
 10
11.16597658730823
 20
-11.19609183370664
 30
0.0
 11
11.16597658730823
 21
-11.33479779231228
 31
0.0
  0
CIRCLE
  5
143
330
E4
100
AcDbEntity
  8
Drawing
 62
     7
100
AcDbCircle
 10
11.10793576980309
 20
-11.25311117782129
 30
0.0
 40
0.0258543503171088
  0
LINE
  5
144
330
E4
100
AcDbEntity
  8
Drawing
 62
     7
100
AcDbLine
 10
11.24776105284483
 20
-15.95129694044325
 30
0.0
 11
11.24776105284483
 21
-15.83478003982566
 31
0.0
  0
LINE
  5
145
330
E4
100
AcDbEntity
  8
Drawing
 62
     7
100
AcDbLine
 10
11.24118830460487
 20
-15.91320447898271
 30
0.0
 11
11.11661318949513
 21
-15.88773527845139
 31
0.0
  0
LINE
  5
146
330
E4
100
AcDbEntity
  8
Drawing
 62
     7
100
AcDbLine
 10
11.24118830460487
 20
-15.86226607792007
 30
0.0
 11
11.11661318949513
 21
-15.88773527845139
 31
0.0
  0
LINE
  5
147
330
E4
100
AcDbEntity
  8
Drawing
 62
     7
100
AcDbLine
 10
11.2356542666536
 20
-11.58201669685059
 30
0.0
 11
11.2356542666536
 21
-15.70701669685059
 31
0.0
  0
LINE
  5
148
330
E4
100
AcDbEntity
  8
Drawing
 62
     7
100
AcDbLine
 10
10.73490597748256
 20
-11.08201669685059
 30
0.0
 11
10.73490597748256
 21
-16.08201669685059
 31
0.0
  0
MTEXT
  5
149
330
E4
100
AcDbEntity
  8
Drawing
 62
     7
100
AcDbMText
 10
10.68050979858494
 20
-17.32921694526992
 30
0.0
 40
0.3287037037037037
 41
3.111111111111111
 46
0.2
 71
     1
 72
     1
  1
\pxsm1.00;\fFuturist Fixed-width|b0|i0|c0|p0.3287;\W0.90;SECTION
 73
     1
 44
1.0
1001
ACAD
1000
ACAD_MTEXT_DEFINED_HEIGHT_BEGIN
1070
    46
1040
0.2
1000
ACAD_MTEXT_DEFINED_HEIGHT_END
  0
ENDBLK
  5
14B
330
E4
100
AcDbEntity
  8
0
100
AcDbBlockEnd
  0
BLOCK
  5
119
330
F3
100
AcDbEntity
  8
0
100
AcDbBlockBegin
  2
PD_458
 70
     0
 10
0.0
 20
0.0
 30
0.0
  3
PD_458
  1

  0
LINE
  5
F4
330
F3
100
AcDbEntity
  8
Drawing
 62
     7
100
AcDbLine
 10
11.09708855184404
 20
-15.77777777777778
 30
0.0
 11
11.20947583478956
 21
-15.77777777777778
 31
0.0
  0
LINE
  5
F5
330
F3
100
AcDbEntity
  8
Drawing
 62
     7
100
AcDbLine
 10
11.09708855184404
 20
-15.77777777777778
 30
0.0
 11
11.20947583478956
 21
-15.77777777777778
 31
0.0
  0
LINE
  5
F6
330
F3
100
AcDbEntity
  8
Drawing
 62
     7
100
AcDbLine
 10
11.09708855184404
 20
-15.79166666666667
 30
0.0
 11
11.20947583478956
 21
-15.79166666666667
 31
0.0
  0
LINE
  5
F7
330
F3
100
AcDbEntity
  8
Drawing
 62
     7
100
AcDbLine
 10
11.09708855184404
 20
-15.79166666666667
 30
0.0
 11
11.20947583478956
 21
-15.79166666666667
 31
0.0
  0
LINE
  5
F8
330
F3
100
AcDbEntity
  8
Drawing
 62
     7
100
AcDbLine
 10
11.09708855184404
 20
-15.80555555555556
 30
0.0
 11
11.20947583478956
 21
-15.80555555555556
 31
0.0
  0
LINE
  5
F9
330
F3
100
AcDbEntity
  8
Drawing
 62
     7
100
AcDbLine
 10
11.09708855184404
 20
-15.80555555555556
 30
0.0
 11
11.20947583478956
 21
-15.80555555555556
 31
0.0
  0
LINE
  5
FA
330
F3
100
AcDbEntity
  8
Drawing
 62
     7
100
AcDbLine
 10
11.09708855184404
 20
-15.81944444444444
 30
0.0
 11
11.20947583478956
 21
-15.81944444444444
 31
0.0
  0
LINE
  5
FB
330
F3
100
AcDbEntity
  8
Drawing
 62
     7
100
AcDbLine
 10
11.09708855184404
 20
-15.81944444444444
 30
0.0
 11
11.20947583478956
 21
-15.81944444444444
 31
0.0
  0
LINE
  5
FC
330
F3
100
AcDbEntity
  8
Drawing
 62
     7
100
AcDbLine
 10
11.09708855184404
 20
-15.83333333333333
 30
0.0
 11
11.20947583478956
 21
-15.83333333333333
 31
0.0
  0
LINE
  5
FD
330
F3
100
AcDbEntity
  8
Drawing
 62
     7
100
AcDbLine
 10
11.09708855184404
 20
-15.83333333333333
 30
0.0
 11
11.20947583478956
 21
-15.83333333333333
 31
0.0
  0
LINE
  5
FE
330
F3
100
AcDbEntity
  8
Drawing
 62
     7
100
AcDbLine
 10
11.09708855184404
 20
-15.84722222222222
 30
0.0
 11
11.20947583478956
 21
-15.84722222222222
 31
0.0
  0
LINE
  5
FF
330
F3
100
AcDbEntity
  8
Drawing
 62
     7
100
AcDbLine
 10
11.09708855184404
 20
-15.84722222222222
 30
0.0
 11
11.20947583478956
 21
-15.84722222222222
 31
0.0
  0
LINE
  5
100
330
F3
100
AcDbEntity
  8
Drawing
 62
     7
100
AcDbLine
 10
11.09708855184404
 20
-15.86111111111111
 30
0.0
 11
11.20947583478956
 21
-15.86111111111111
 31
0.0
  0
LINE
  5
101
330
F3
100
AcDbEntity
  8
Drawing
 62
     7
100
AcDbLine
 10
11.09708855184404
 20
-15.86111111111111
 30
0.0
 11
11.20947583478956
 21
-15.86111111111111
 31
0.0
  0
LINE
  5
102
330
F3
100
AcDbEntity
  8
Drawing
 62
     7
100
AcDbLine
 10
11.09708855184404
 20
-15.875
 30
0.0
 11
11.20947583478956
 21
-15.875
 31
0.0
  0
LINE
  5
103
330
F3
100
AcDbEntity
  8
Drawing
 62
     7
100
AcDbLine
 10
11.09708855184404
 20
-15.875
 30
0.0
 11
11.20947583478956
 21
-15.875
 31
0.0
  0
LINE
  5
104
330
F3
100
AcDbEntity
  8
Drawing
 62
     7
100
AcDbLine
 10
11.09708855184404
 20
-15.88888888888889
 30
0.0
 11
11.20947583478956
 21
-15.88888888888889
 31
0.0
  0
LINE
  5
105
330
F3
100
AcDbEntity
  8
Drawing
 62
     7
100
AcDbLine
 10
11.09708855184404
 20
-15.88888888888889
 30
0.0
 11
11.20947583478956
 21
-15.88888888888889
 31
0.0
  0
LINE
  5
106
330
F3
100
AcDbEntity
  8
Drawing
 62
     7
100
AcDbLine
 10
11.09708855184404
 20
-15.90277777777778
 30
0.0
 11
11.20947583478956
 21
-15.90277777777778
 31
0.0
  0
LINE
  5
107
330
F3
100
AcDbEntity
  8
Drawing
 62
     7
100
AcDbLine
 10
11.09708855184404
 20
-15.90277777777778
 30
0.0
 11
11.20947583478956
 21
-15.90277777777778
 31
0.0
  0
LINE
  5
108
330
F3
100
AcDbEntity
  8
Drawing
 62
     7
100
AcDbLine
 10
11.09708855184404
 20
-15.91666666666667
 30
0.0
 11
11.20947583478956
 21
-15.91666666666667
 31
0.0
  0
LINE
  5
109
330
F3
100
AcDbEntity
  8
Drawing
 62
     7
100
AcDbLine
 10
11.09708855184404
 20
-15.91666666666667
 30
0.0
 11
11.20947583478956
 21
-15.91666666666667
 31
0.0
  0
LINE
  5
10A
330
F3
100
AcDbEntity
  8
Drawing
 62
     7
100
AcDbLine
 10
11.09708855184404
 20
-15.93055555555556
 30
0.0
 11
11.20947583478956
 21
-15.93055555555556
 31
0.0
  0
LINE
  5
10B
330
F3
100
AcDbEntity
  8
Drawing
 62
     7
100
AcDbLine
 10
11.09708855184404
 20
-15.93055555555556
 30
0.0
 11
11.20947583478956
 21
-15.93055555555556
 31
0.0
  0
LINE
  5
10C
330
F3
100
AcDbEntity
  8
Drawing
 62
     7
100
AcDbLine
 10
11.09708855184404
 20
-15.94444444444444
 30
0.0
 11
11.20947583478956
 21
-15.94444444444444
 31
0.0
  0
LINE
  5
10D
330
F3
100
AcDbEntity
  8
Drawing
 62
     7
100
AcDbLine
 10
11.09708855184404
 20
-15.94444444444444
 30
0.0
 11
11.20947583478956
 21
-15.94444444444444
 31
0.0
  0
LINE
  5
10E
330
F3
100
AcDbEntity
  8
Drawing
 62
     7
100
AcDbLine
 10
11.09708855184404
 20
-15.95833333333333
 30
0.0
 11
11.20947583478956
 21
-15.95833333333333
 31
0.0
  0
LINE
  5
10F
330
F3
100
AcDbEntity
  8
Drawing
 62
     7
100
AcDbLine
 10
11.09708855184404
 20
-15.95833333333333
 30
0.0
 11
11.20947583478956
 21
-15.95833333333333
 31
0.0
  0
LINE
  5
110
330
F3
100
AcDbEntity
  8
Drawing
 62
     7
100
AcDbLine
 10
11.09708855184404
 20
-15.97222222222222
 30
0.0
 11
11.20947583478956
 21
-15.97222222222222
 31
0.0
  0
LINE
  5
111
330
F3
100
AcDbEntity
  8
Drawing
 62
     7
100
AcDbLine
 10
11.09708855184404
 20
-15.97222222222222
 30
0.0
 11
11.20947583478956
 21
-15.97222222222222
 31
0.0
  0
LINE
  5
112
330
F3
100
AcDbEntity
  8
Drawing
 62
     7
100
AcDbLine
 10
11.09708855184404
 20
-15.98611111111111
 30
0.0
 11
11.20947583478956
 21
-15.98611111111111
 31
0.0
  0
LINE
  5
113
330
F3
100
AcDbEntity
  8
Drawing
 62
     7
100
AcDbLine
 10
11.09708855184404
 20
-15.98611111111111
 30
0.0
 11
11.20947583478956
 21
-15.98611111111111
 31
0.0
  0
LINE
  5
114
330
F3
100
AcDbEntity
  8
Drawing
 62
     7
100
AcDbLine
 10
11.09708855184404
 20
-16.0
 30
0.0
 11
11.20947583478956
 21
-16.0
 31
0.0
  0
LINE
  5
115
330
F3
100
AcDbEntity
  8
Drawing
 62
     7
100
AcDbLine
 10
11.09708855184404
 20
-16.0
 30
0.0
 11
11.20947583478956
 21
-16.0
 31
0.0
  0
LINE
  5
116
330
F3
100
AcDbEntity
  8
Drawing
 62
     7
100
AcDbLine
 10
11.09708855184404
 20
-16.01388888888889
 30
0.0
 11
11.20947583478956
 21
-16.01388888888889
 31
0.0
  0
LINE
  5
117
330
F3
100
AcDbEntity
  8
Drawing
 62
     7
100
AcDbLine
 10
11.09708855184404
 20
-16.01388888888889
 30
0.0
 11
11.20947583478956
 21
-16.01388888888889
 31
0.0
  0
ENDBLK
  5
11A
330
F3
100
AcDbEntity
  8
0
100
AcDbBlockEnd
  0
BLOCK
  5
203
330
201
100
AcDbEntity
  8
0
100
AcDbBlockBegin
  2
*Paper_Space9
 70
     0
 10
0.0
 20
0.0
 30
0.0
  3
*Paper_Space9
  1

  0
VIEWPORT
  5
205
330
201
100
AcDbEntity
  8
0
100
AcDbViewport
 10
5.25
 20
4.0
 30
0.0
 40
11.638
 41
8.993
 68
     1
 69
     1
 12
5.25
 22
4.0
 13
0.0
 23
0.0
 14
0.5
 24
0.5
 15
0.5
 25
0.5
 16
0.0
 26
0.0
 36
1.0
 17
0.0
 27
0.0
 37
0.0
 42
50.0
 43
0.0
 44
0.0
 45
8.993
 50
0.0
 51
0.0
 72
   100
 90
   557152
  1

281
     0
 71
     1
 74
     0
110
0.0
120
0.0
130
0.0
111
1.0
121
0.0
131
0.0
112
0.0
122
1.0
132
0.0
 79
     0
146
0.0
170
     0
 61
     5
292
     1
282
     1
141
0.0
142
0.0
 63
   256
  0
VIEWPORT
  5
206
330
201
100
AcDbEntity
  8
0
100
AcDbViewport
 10
3.4999999
 20
5.25
 30
0.0
 40
576.0
 41
768.0
 68
     2
 69
     2
 12
0.0
 22
0.0
 13
0.0
 23
0.0
 14
0.5
 24
0.5
 15
0.5
 25
0.5
 16
0.0
 26
0.0
 36
1.0
 17
8.0
 27
-10.66666666666667
 37
0.0
 42
50.0
 43
0.0
 44
0.0
 45
1536.0
 50
0.0
 51
0.0
 72
   100
 90
   557152
  1

281
     0
 71
     1
 74
     0
110
0.0
120
0.0
130
0.0
111
1.0
121
0.0
131
0.0
112
0.0
122
1.0
132
0.0
 79
     0
146
0.0
170
     0
 61
     5
292
     1
282
     1
141
0.0
142
0.0
 63
   256
  0
ENDBLK
  5
204
330
201
100
AcDbEntity
  8
0
100
AcDbBlockEnd
  0
BLOCK
  5
155
330
153
100
AcDbEntity
  8
0
100
AcDbBlockBegin
  2
*Paper_Space10
 70
     0
 10
0.0
 20
0.0
 30
0.0
  3
*Paper_Space10
  1

  0
VIEWPORT
  5
157
330
153
100
AcDbEntity
  8
0
100
AcDbViewport
 10
5.25
 20
4.0
 30
0.0
 40
11.638
 41
8.993
 68
     1
 69
     1
 12
5.25
 22
4.0
 13
0.0
 23
0.0
 14
0.5
 24
0.5
 15
0.5
 25
0.5
 16
0.0
 26
0.0
 36
1.0
 17
0.0
 27
0.0
 37
0.0
 42
50.0
 43
0.0
 44
0.0
 45
8.993
 50
0.0
 51
0.0
 72
   100
 90
   557152
  1

281
     0
 71
     1
 74
     0
110
0.0
120
0.0
130
0.0
111
1.0
121
0.0
131
0.0
112
0.0
122
1.0
132
0.0
 79
     0
146
0.0
170
     0
 61
     5
292
     1
282
     1
141
0.0
142
0.0
 63
   256
  0
VIEWPORT
  5
158
330
153
100
AcDbEntity
  8
0
100
AcDbViewport
 10
3.4999999
 20
5.25
 30
0.0
 40
576.0
 41
768.0
 68
     2
 69
     2
 12
0.0
 22
0.0
 13
0.0
 23
0.0
 14
0.5
 24
0.5
 15
0.5
 25
0.5
 16
0.0
 26
0.0
 36
1.0
 17
8.0
 27
-10.66666666666667
 37
0.0
 42
50.0
 43
0.0
 44
0.0
 45
1536.0
 50
0.0
 51
0.0
 72
   100
 90
   557152
  1

281
     0
 71
     1
 74
     0
110
0.0
120
0.0
130
0.0
111
1.0
121
0.0
131
0.0
112
0.0
122
1.0
132
0.0
 79
     0
146
0.0
170
     0
 61
     5
292
     1
282
     1
141
0.0
142
0.0
 63
   256
  0
ENDBLK
  5
156
330
153
100
AcDbEntity
  8
0
100
AcDbBlockEnd
  0
BLOCK
  5
15B
330
159
100
AcDbEntity
  8
0
100
AcDbBlockBegin
  2
*Paper_Space11
 70
     0
 10
0.0
 20
0.0
 30
0.0
  3
*Paper_Space11
  1

  0
VIEWPORT
  5
15D
330
159
100
AcDbEntity
  8
0
100
AcDbViewport
 10
5.25
 20
4.0
 30
0.0
 40
11.638
 41
8.993
 68
     1
 69
     1
 12
5.25
 22
4.0
 13
0.0
 23
0.0
 14
0.5
 24
0.5
 15
0.5
 25
0.5
 16
0.0
 26
0.0
 36
1.0
 17
0.0
 27
0.0
 37
0.0
 42
50.0
 43
0.0
 44
0.0
 45
8.993
 50
0.0
 51
0.0
 72
   100
 90
   557152
  1

281
     0
 71
     1
 74
     0
110
0.0
120
0.0
130
0.0
111
1.0
121
0.0
131
0.0
112
0.0
122
1.0
132
0.0
 79
     0
146
0.0
170
     0
 61
     5
292
     1
282
     1
141
0.0
142
0.0
 63
   256
  0
VIEWPORT
  5
15E
330
159
100
AcDbEntity
  8
0
100
AcDbViewport
 10
3.4999999
 20
5.25
 30
0.0
 40
576.0
 41
768.0
 68
     2
 69
     2
 12
0.0
 22
0.0
 13
0.0
 23
0.0
 14
0.5
 24
0.5
 15
0.5
 25
0.5
 16
0.0
 26
0.0
 36
1.0
 17
8.0
 27
-10.66666666666667
 37
0.0
 42
50.0
 43
0.0
 44
0.0
 45
1536.0
 50
0.0
 51
0.0
 72
   100
 90
   557152
  1

281
     0
 71
     1
 74
     0
110
0.0
120
0.0
130
0.0
111
1.0
121
0.0
131
0.0
112
0.0
122
1.0
132
0.0
 79
     0
146
0.0
170
     0
 61
     5
292
     1
282
     1
141
0.0
142
0.0
 63
   256
  0
ENDBLK
  5
15C
330
159
100
AcDbEntity
  8
0
100
AcDbBlockEnd
  0
BLOCK
  5
161
330
15F
100
AcDbEntity
  8
0
100
AcDbBlockBegin
  2
*Paper_Space12
 70
     0
 10
0.0
 20
0.0
 30
0.0
  3
*Paper_Space12
  1

  0
VIEWPORT
  5
163
330
15F
100
AcDbEntity
  8
0
100
AcDbViewport
 10
5.25
 20
4.0
 30
0.0
 40
11.638
 41
8.993
 68
     1
 69
     1
 12
5.25
 22
4.0
 13
0.0
 23
0.0
 14
0.5
 24
0.5
 15
0.5
 25
0.5
 16
0.0
 26
0.0
 36
1.0
 17
0.0
 27
0.0
 37
0.0
 42
50.0
 43
0.0
 44
0.0
 45
8.993
 50
0.0
 51
0.0
 72
   100
 90
   557152
  1

281
     0
 71
     1
 74
     0
110
0.0
120
0.0
130
0.0
111
1.0
121
0.0
131
0.0
112
0.0
122
1.0
132
0.0
 79
     0
146
0.0
170
     0
 61
     5
292
     1
282
     1
141
0.0
142
0.0
 63
   256
  0
VIEWPORT
  5
164
330
15F
100
AcDbEntity
  8
0
100
AcDbViewport
 10
3.4999999
 20
5.25
 30
0.0
 40
576.0
 41
768.0
 68
     2
 69
     2
 12
0.0
 22
0.0
 13
0.0
 23
0.0
 14
0.5
 24
0.5
 15
0.5
 25
0.5
 16
0.0
 26
0.0
 36
1.0
 17
8.0
 27
-10.66666666666667
 37
0.0
 42
50.0
 43
0.0
 44
0.0
 45
1536.0
 50
0.0
 51
0.0
 72
   100
 90
   557152
  1

281
     0
 71
     1
 74
     0
110
0.0
120
0.0
130
0.0
111
1.0
121
0.0
131
0.0
112
0.0
122
1.0
132
0.0
 79
     0
146
0.0
170
     0
 61
     5
292
     1
282
     1
141
0.0
142
0.0
 63
   256
  0
ENDBLK
  5
162
330
15F
100
AcDbEntity
  8
0
100
AcDbBlockEnd
  0
BLOCK
  5
167
330
165
100
AcDbEntity
  8
0
100
AcDbBlockBegin
  2
*Paper_Space13
 70
     0
 10
0.0
 20
0.0
 30
0.0
  3
*Paper_Space13
  1

  0
VIEWPORT
  5
169
330
165
100
AcDbEntity
  8
0
100
AcDbViewport
 10
5.25
 20
4.0
 30
0.0
 40
11.638
 41
8.993
 68
     1
 69
     1
 12
5.25
 22
4.0
 13
0.0
 23
0.0
 14
0.5
 24
0.5
 15
0.5
 25
0.5
 16
0.0
 26
0.0
 36
1.0
 17
0.0
 27
0.0
 37
0.0
 42
50.0
 43
0.0
 44
0.0
 45
8.993
 50
0.0
 51
0.0
 72
   100
 90
   557152
  1

281
     0
 71
     1
 74
     0
110
0.0
120
0.0
130
0.0
111
1.0
121
0.0
131
0.0
112
0.0
122
1.0
132
0.0
 79
     0
146
0.0
170
     0
 61
     5
292
     1
282
     1
141
0.0
142
0.0
 63
   256
  0
VIEWPORT
  5
16A
330
165
100
AcDbEntity
  8
0
100
AcDbViewport
 10
3.4999999
 20
5.25
 30
0.0
 40
576.0
 41
768.0
 68
     2
 69
     2
 12
0.0
 22
0.0
 13
0.0
 23
0.0
 14
0.5
 24
0.5
 15
0.5
 25
0.5
 16
0.0
 26
0.0
 36
1.0
 17
8.0
 27
-10.66666666666667
 37
0.0
 42
50.0
 43
0.0
 44
0.0
 45
1536.0
 50
0.0
 51
0.0
 72
   100
 90
   557152
  1

281
     0
 71
     1
 74
     0
110
0.0
120
0.0
130
0.0
111
1.0
121
0.0
131
0.0
112
0.0
122
1.0
132
0.0
 79
     0
146
0.0
170
     0
 61
     5
292
     1
282
     1
141
0.0
142
0.0
 63
   256
  0
ENDBLK
  5
168
330
165
100
AcDbEntity
  8
0
100
AcDbBlockEnd
  0
BLOCK
  5
16D
330
16B
100
AcDbEntity
  8
0
100
AcDbBlockBegin
  2
*Paper_Space14
 70
     0
 10
0.0
 20
0.0
 30
0.0
  3
*Paper_Space14
  1

  0
VIEWPORT
  5
16F
330
16B
100
AcDbEntity
  8
0
100
AcDbViewport
 10
5.25
 20
4.0
 30
0.0
 40
11.638
 41
8.993
 68
     1
 69
     1
 12
5.25
 22
4.0
 13
0.0
 23
0.0
 14
0.5
 24
0.5
 15
0.5
 25
0.5
 16
0.0
 26
0.0
 36
1.0
 17
0.0
 27
0.0
 37
0.0
 42
50.0
 43
0.0
 44
0.0
 45
8.993
 50
0.0
 51
0.0
 72
   100
 90
   557152
  1

281
     0
 71
     1
 74
     0
110
0.0
120
0.0
130
0.0
111
1.0
121
0.0
131
0.0
112
0.0
122
1.0
132
0.0
 79
     0
146
0.0
170
     0
 61
     5
292
     1
282
     1
141
0.0
142
0.0
 63
   256
  0
VIEWPORT
  5
170
330
16B
100
AcDbEntity
  8
0
100
AcDbViewport
 10
3.4999999
 20
5.25
 30
0.0
 40
576.0
 41
768.0
 68
     2
 69
     2
 12
0.0
 22
0.0
 13
0.0
 23
0.0
 14
0.5
 24
0.5
 15
0.5
 25
0.5
 16
0.0
 26
0.0
 36
1.0
 17
8.0
 27
-10.66666666666667
 37
0.0
 42
50.0
 43
0.0
 44
0.0
 45
1536.0
 50
0.0
 51
0.0
 72
   100
 90
   557152
  1

281
     0
 71
     1
 74
     0
110
0.0
120
0.0
130
0.0
111
1.0
121
0.0
131
0.0
112
0.0
122
1.0
132
0.0
 79
     0
146
0.0
170
     0
 61
     5
292
     1
282
     1
141
0.0
142
0.0
 63
   256
  0
ENDBLK
  5
16E
330
16B
100
AcDbEntity
  8
0
100
AcDbBlockEnd
  0
BLOCK
  5
173
330
171
100
AcDbEntity
  8
0
100
AcDbBlockBegin
  2
*Paper_Space15
 70
     0
 10
0.0
 20
0.0
 30
0.0
  3
*Paper_Space15
  1

  0
VIEWPORT
  5
175
330
171
100
AcDbEntity
  8
0
100
AcDbViewport
 10
5.25
 20
4.0
 30
0.0
 40
11.638
 41
8.993
 68
     1
 69
     1
 12
5.25
 22
4.0
 13
0.0
 23
0.0
 14
0.5
 24
0.5
 15
0.5
 25
0.5
 16
0.0
 26
0.0
 36
1.0
 17
0.0
 27
0.0
 37
0.0
 42
50.0
 43
0.0
 44
0.0
 45
8.993
 50
0.0
 51
0.0
 72
   100
 90
   557152
  1

281
     0
 71
     1
 74
     0
110
0.0
120
0.0
130
0.0
111
1.0
121
0.0
131
0.0
112
0.0
122
1.0
132
0.0
 79
     0
146
0.0
170
     0
 61
     5
292
     1
282
     1
141
0.0
142
0.0
 63
   256
  0
VIEWPORT
  5
176
330
171
100
AcDbEntity
  8
0
100
AcDbViewport
 10
3.4999999
 20
5.25
 30
0.0
 40
576.0
 41
768.0
 68
     2
 69
     2
 12
0.0
 22
0.0
 13
0.0
 23
0.0
 14
0.5
 24
0.5
 15
0.5
 25
0.5
 16
0.0
 26
0.0
 36
1.0
 17
8.0
 27
-10.66666666666667
 37
0.0
 42
50.0
 43
0.0
 44
0.0
 45
1536.0
 50
0.0
 51
0.0
 72
   100
 90
   557152
  1

281
     0
 71
     1
 74
     0
110
0.0
120
0.0
130
0.0
111
1.0
121
0.0
131
0.0
112
0.0
122
1.0
132
0.0
 79
     0
146
0.0
170
     0
 61
     5
292
     1
282
     1
141
0.0
142
0.0
 63
   256
  0
ENDBLK
  5
174
330
171
100
AcDbEntity
  8
0
100
AcDbBlockEnd
  0
BLOCK
  5
179
330
177
100
AcDbEntity
  8
0
100
AcDbBlockBegin
  2
*Paper_Space16
 70
     0
 10
0.0
 20
0.0
 30
0.0
  3
*Paper_Space16
  1

  0
VIEWPORT
  5
17B
330
177
100
AcDbEntity
  8
0
100
AcDbViewport
 10
5.25
 20
4.0
 30
0.0
 40
11.638
 41
8.993
 68
     1
 69
     1
 12
5.25
 22
4.0
 13
0.0
 23
0.0
 14
0.5
 24
0.5
 15
0.5
 25
0.5
 16
0.0
 26
0.0
 36
1.0
 17
0.0
 27
0.0
 37
0.0
 42
50.0
 43
0.0
 44
0.0
 45
8.993
 50
0.0
 51
0.0
 72
   100
 90
   557152
  1

281
     0
 71
     1
 74
     0
110
0.0
120
0.0
130
0.0
111
1.0
121
0.0
131
0.0
112
0.0
122
1.0
132
0.0
 79
     0
146
0.0
170
     0
 61
     5
292
     1
282
     1
141
0.0
142
0.0
 63
   256
  0
VIEWPORT
  5
17C
330
177
100
AcDbEntity
  8
0
100
AcDbViewport
 10
3.4999999
 20
5.25
 30
0.0
 40
576.0
 41
768.0
 68
     2
 69
     2
 12
0.0
 22
0.0
 13
0.0
 23
0.0
 14
0.5
 24
0.5
 15
0.5
 25
0.5
 16
0.0
 26
0.0
 36
1.0
 17
8.0
 27
-10.66666666666667
 37
0.0
 42
50.0
 43
0.0
 44
0.0
 45
1536.0
 50
0.0
 51
0.0
 72
   100
 90
   557152
  1

281
     0
 71
     1
 74
     0
110
0.0
120
0.0
130
0.0
111
1.0
121
0.0
131
0.0
112
0.0
122
1.0
132
0.0
 79
     0
146
0.0
170
     0
 61
     5
292
     1
282
     1
141
0.0
142
0.0
 63
   256
  0
ENDBLK
  5
17A
330
177
100
AcDbEntity
  8
0
100
AcDbBlockEnd
  0
BLOCK
  5
17F
330
17D
100
AcDbEntity
  8
0
100
AcDbBlockBegin
  2
*Paper_Space17
 70
     0
 10
0.0
 20
0.0
 30
0.0
  3
*Paper_Space17
  1

  0
VIEWPORT
  5
181
330
17D
100
AcDbEntity
  8
0
100
AcDbViewport
 10
5.25
 20
4.0
 30
0.0
 40
11.638
 41
8.993
 68
     1
 69
     1
 12
5.25
 22
4.0
 13
0.0
 23
0.0
 14
0.5
 24
0.5
 15
0.5
 25
0.5
 16
0.0
 26
0.0
 36
1.0
 17
0.0
 27
0.0
 37
0.0
 42
50.0
 43
0.0
 44
0.0
 45
8.993
 50
0.0
 51
0.0
 72
   100
 90
   557152
  1

281
     0
 71
     1
 74
     0
110
0.0
120
0.0
130
0.0
111
1.0
121
0.0
131
0.0
112
0.0
122
1.0
132
0.0
 79
     0
146
0.0
170
     0
 61
     5
292
     1
282
     1
141
0.0
142
0.0
 63
   256
  0
VIEWPORT
  5
182
330
17D
100
AcDbEntity
  8
0
100
AcDbViewport
 10
3.4999999
 20
5.25
 30
0.0
 40
576.0
 41
768.0
 68
     2
 69
     2
 12
0.0
 22
0.0
 13
0.0
 23
0.0
 14
0.5
 24
0.5
 15
0.5
 25
0.5
 16
0.0
 26
0.0
 36
1.0
 17
8.0
 27
-10.66666666666667
 37
0.0
 42
50.0
 43
0.0
 44
0.0
 45
1536.0
 50
0.0
 51
0.0
 72
   100
 90
   557152
  1

281
     0
 71
     1
 74
     0
110
0.0
120
0.0
130
0.0
111
1.0
121
0.0
131
0.0
112
0.0
122
1.0
132
0.0
 79
     0
146
0.0
170
     0
 61
     5
292
     1
282
     1
141
0.0
142
0.0
 63
   256
  0
ENDBLK
  5
180
330
17D
100
AcDbEntity
  8
0
100
AcDbBlockEnd
  0
BLOCK
  5
185
330
183
100
AcDbEntity
  8
0
100
AcDbBlockBegin
  2
*Paper_Space18
 70
     0
 10
0.0
 20
0.0
 30
0.0
  3
*Paper_Space18
  1

  0
VIEWPORT
  5
187
330
183
100
AcDbEntity
  8
0
100
AcDbViewport
 10
5.25
 20
4.0
 30
0.0
 40
11.638
 41
8.993
 68
     1
 69
     1
 12
5.25
 22
4.0
 13
0.0
 23
0.0
 14
0.5
 24
0.5
 15
0.5
 25
0.5
 16
0.0
 26
0.0
 36
1.0
 17
0.0
 27
0.0
 37
0.0
 42
50.0
 43
0.0
 44
0.0
 45
8.993
 50
0.0
 51
0.0
 72
   100
 90
   557152
  1

281
     0
 71
     1
 74
     0
110
0.0
120
0.0
130
0.0
111
1.0
121
0.0
131
0.0
112
0.0
122
1.0
132
0.0
 79
     0
146
0.0
170
     0
 61
     5
292
     1
282
     1
141
0.0
142
0.0
 63
   256
  0
VIEWPORT
  5
188
330
183
100
AcDbEntity
  8
0
100
AcDbViewport
 10
3.4999999
 20
5.25
 30
0.0
 40
576.0
 41
768.0
 68
     2
 69
     2
 12
0.0
 22
0.0
 13
0.0
 23
0.0
 14
0.5
 24
0.5
 15
0.5
 25
0.5
 16
0.0
 26
0.0
 36
1.0
 17
8.0
 27
-10.66666666666667
 37
0.0
 42
50.0
 43
0.0
 44
0.0
 45
1536.0
 50
0.0
 51
0.0
 72
   100
 90
   557152
  1

281
     0
 71
     1
 74
     0
110
0.0
120
0.0
130
0.0
111
1.0
121
0.0
131
0.0
112
0.0
122
1.0
132
0.0
 79
     0
146
0.0
170
     0
 61
     5
292
     1
282
     1
141
0.0
142
0.0
 63
   256
  0
ENDBLK
  5
186
330
183
100
AcDbEntity
  8
0
100
AcDbBlockEnd
  0
BLOCK
  5
18B
330
189
100
AcDbEntity
  8
0
100
AcDbBlockBegin
  2
*Paper_Space19
 70
     0
 10
0.0
 20
0.0
 30
0.0
  3
*Paper_Space19
  1

  0
VIEWPORT
  5
18D
330
189
100
AcDbEntity
  8
0
100
AcDbViewport
 10
5.25
 20
4.0
 30
0.0
 40
11.638
 41
8.993
 68
     1
 69
     1
 12
5.25
 22
4.0
 13
0.0
 23
0.0
 14
0.5
 24
0.5
 15
0.5
 25
0.5
 16
0.0
 26
0.0
 36
1.0
 17
0.0
 27
0.0
 37
0.0
 42
50.0
 43
0.0
 44
0.0
 45
8.993
 50
0.0
 51
0.0
 72
   100
 90
   557152
  1

281
     0
 71
     1
 74
     0
110
0.0
120
0.0
130
0.0
111
1.0
121
0.0
131
0.0
112
0.0
122
1.0
132
0.0
 79
     0
146
0.0
170
     0
 61
     5
292
     1
282
     1
141
0.0
142
0.0
 63
   256
  0
VIEWPORT
  5
18E
330
189
100
AcDbEntity
  8
0
100
AcDbViewport
 10
3.4999999
 20
5.25
 30
0.0
 40
576.0
 41
768.0
 68
     2
 69
     2
 12
0.0
 22
0.0
 13
0.0
 23
0.0
 14
0.5
 24
0.5
 15
0.5
 25
0.5
 16
0.0
 26
0.0
 36
1.0
 17
8.0
 27
-10.66666666666667
 37
0.0
 42
50.0
 43
0.0
 44
0.0
 45
1536.0
 50
0.0
 51
0.0
 72
   100
 90
   557152
  1

281
     0
 71
     1
 74
     0
110
0.0
120
0.0
130
0.0
111
1.0
121
0.0
131
0.0
112
0.0
122
1.0
132
0.0
 79
     0
146
0.0
170
     0
 61
     5
292
     1
282
     1
141
0.0
142
0.0
 63
   256
  0
ENDBLK
  5
18C
330
189
100
AcDbEntity
  8
0
100
AcDbBlockEnd
  0
BLOCK
  5
191
330
18F
100
AcDbEntity
  8
0
100
AcDbBlockBegin
  2
*Paper_Space20
 70
     0
 10
0.0
 20
0.0
 30
0.0
  3
*Paper_Space20
  1

  0
VIEWPORT
  5
193
330
18F
100
AcDbEntity
  8
0
100
AcDbViewport
 10
5.25
 20
4.0
 30
0.0
 40
11.638
 41
8.993
 68
     1
 69
     1
 12
5.25
 22
4.0
 13
0.0
 23
0.0
 14
0.5
 24
0.5
 15
0.5
 25
0.5
 16
0.0
 26
0.0
 36
1.0
 17
0.0
 27
0.0
 37
0.0
 42
50.0
 43
0.0
 44
0.0
 45
8.993
 50
0.0
 51
0.0
 72
   100
 90
   557152
  1

281
     0
 71
     1
 74
     0
110
0.0
120
0.0
130
0.0
111
1.0
121
0.0
131
0.0
112
0.0
122
1.0
132
0.0
 79
     0
146
0.0
170
     0
 61
     5
292
     1
282
     1
141
0.0
142
0.0
 63
   256
  0
VIEWPORT
  5
194
330
18F
100
AcDbEntity
  8
0
100
AcDbViewport
 10
3.4999999
 20
5.25
 30
0.0
 40
576.0
 41
768.0
 68
     2
 69
     2
 12
0.0
 22
0.0
 13
0.0
 23
0.0
 14
0.5
 24
0.5
 15
0.5
 25
0.5
 16
0.0
 26
0.0
 36
1.0
 17
8.0
 27
-10.66666666666667
 37
0.0
 42
50.0
 43
0.0
 44
0.0
 45
1536.0
 50
0.0
 51
0.0
 72
   100
 90
   557152
  1

281
     0
 71
     1
 74
     0
110
0.0
120
0.0
130
0.0
111
1.0
121
0.0
131
0.0
112
0.0
122
1.0
132
0.0
 79
     0
146
0.0
170
     0
 61
     5
292
     1
282
     1
141
0.0
142
0.0
 63
   256
  0
ENDBLK
  5
192
330
18F
100
AcDbEntity
  8
0
100
AcDbBlockEnd
  0
BLOCK
  5
197
330
195
100
AcDbEntity
  8
0
100
AcDbBlockBegin
  2
*Paper_Space21
 70
     0
 10
0.0
 20
0.0
 30
0.0
  3
*Paper_Space21
  1

  0
VIEWPORT
  5
199
330
195
100
AcDbEntity
  8
0
100
AcDbViewport
 10
5.25
 20
4.0
 30
0.0
 40
11.638
 41
8.993
 68
     1
 69
     1
 12
5.25
 22
4.0
 13
0.0
 23
0.0
 14
0.5
 24
0.5
 15
0.5
 25
0.5
 16
0.0
 26
0.0
 36
1.0
 17
0.0
 27
0.0
 37
0.0
 42
50.0
 43
0.0
 44
0.0
 45
8.993
 50
0.0
 51
0.0
 72
   100
 90
   557152
  1

281
     0
 71
     1
 74
     0
110
0.0
120
0.0
130
0.0
111
1.0
121
0.0
131
0.0
112
0.0
122
1.0
132
0.0
 79
     0
146
0.0
170
     0
 61
     5
292
     1
282
     1
141
0.0
142
0.0
 63
   256
  0
VIEWPORT
  5
19A
330
195
100
AcDbEntity
  8
0
100
AcDbViewport
 10
3.4999999
 20
5.25
 30
0.0
 40
576.0
 41
768.0
 68
     2
 69
     2
 12
0.0
 22
0.0
 13
0.0
 23
0.0
 14
0.5
 24
0.5
 15
0.5
 25
0.5
 16
0.0
 26
0.0
 36
1.0
 17
8.0
 27
-10.66666666666667
 37
0.0
 42
50.0
 43
0.0
 44
0.0
 45
1536.0
 50
0.0
 51
0.0
 72
   100
 90
   557152
  1

281
     0
 71
     1
 74
     0
110
0.0
120
0.0
130
0.0
111
1.0
121
0.0
131
0.0
112
0.0
122
1.0
132
0.0
 79
     0
146
0.0
170
     0
 61
     5
292
     1
282
     1
141
0.0
142
0.0
 63
   256
  0
ENDBLK
  5
198
330
195
100
AcDbEntity
  8
0
100
AcDbBlockEnd
  0
BLOCK
  5
19D
330
19B
100
AcDbEntity
  8
0
100
AcDbBlockBegin
  2
*Paper_Space22
 70
     0
 10
0.0
 20
0.0
 30
0.0
  3
*Paper_Space22
  1

  0
VIEWPORT
  5
19F
330
19B
100
AcDbEntity
  8
0
100
AcDbViewport
 10
5.25
 20
4.0
 30
0.0
 40
11.638
 41
8.993
 68
     1
 69
     1
 12
5.25
 22
4.0
 13
0.0
 23
0.0
 14
0.5
 24
0.5
 15
0.5
 25
0.5
 16
0.0
 26
0.0
 36
1.0
 17
0.0
 27
0.0
 37
0.0
 42
50.0
 43
0.0
 44
0.0
 45
8.993
 50
0.0
 51
0.0
 72
   100
 90
   557152
  1

281
     0
 71
     1
 74
     0
110
0.0
120
0.0
130
0.0
111
1.0
121
0.0
131
0.0
112
0.0
122
1.0
132
0.0
 79
     0
146
0.0
170
     0
 61
     5
292
     1
282
     1
141
0.0
142
0.0
 63
   256
  0
VIEWPORT
  5
1A0
330
19B
100
AcDbEntity
  8
0
100
AcDbViewport
 10
3.4999999
 20
5.25
 30
0.0
 40
576.0
 41
768.0
 68
     2
 69
     2
 12
0.0
 22
0.0
 13
0.0
 23
0.0
 14
0.5
 24
0.5
 15
0.5
 25
0.5
 16
0.0
 26
0.0
 36
1.0
 17
8.0
 27
-10.66666666666667
 37
0.0
 42
50.0
 43
0.0
 44
0.0
 45
1536.0
 50
0.0
 51
0.0
 72
   100
 90
   557152
  1

281
     0
 71
     1
 74
     0
110
0.0
120
0.0
130
0.0
111
1.0
121
0.0
131
0.0
112
0.0
122
1.0
132
0.0
 79
     0
146
0.0
170
     0
 61
     5
292
     1
282
     1
141
0.0
142
0.0
 63
   256
  0
ENDBLK
  5
19E
330
19B
100
AcDbEntity
  8
0
100
AcDbBlockEnd
  0
BLOCK
  5
1A3
330
1A1
100
AcDbEntity
  8
0
100
AcDbBlockBegin
  2
*Paper_Space23
 70
     0
 10
0.0
 20
0.0
 30
0.0
  3
*Paper_Space23
  1

  0
VIEWPORT
  5
1A5
330
1A1
100
AcDbEntity
  8
0
100
AcDbViewport
 10
5.25
 20
4.0
 30
0.0
 40
11.638
 41
8.993
 68
     1
 69
     1
 12
5.25
 22
4.0
 13
0.0
 23
0.0
 14
0.5
 24
0.5
 15
0.5
 25
0.5
 16
0.0
 26
0.0
 36
1.0
 17
0.0
 27
0.0
 37
0.0
 42
50.0
 43
0.0
 44
0.0
 45
8.993
 50
0.0
 51
0.0
 72
   100
 90
   557152
  1

281
     0
 71
     1
 74
     0
110
0.0
120
0.0
130
0.0
111
1.0
121
0.0
131
0.0
112
0.0
122
1.0
132
0.0
 79
     0
146
0.0
170
     0
 61
     5
292
     1
282
     1
141
0.0
142
0.0
 63
   256
  0
VIEWPORT
  5
1A6
330
1A1
100
AcDbEntity
  8
0
100
AcDbViewport
 10
3.4999999
 20
5.25
 30
0.0
 40
576.0
 41
768.0
 68
     2
 69
     2
 12
0.0
 22
0.0
 13
0.0
 23
0.0
 14
0.5
 24
0.5
 15
0.5
 25
0.5
 16
0.0
 26
0.0
 36
1.0
 17
8.0
 27
-10.66666666666667
 37
0.0
 42
50.0
 43
0.0
 44
0.0
 45
1536.0
 50
0.0
 51
0.0
 72
   100
 90
   557152
  1

281
     0
 71
     1
 74
     0
110
0.0
120
0.0
130
0.0
111
1.0
121
0.0
131
0.0
112
0.0
122
1.0
132
0.0
 79
     0
146
0.0
170
     0
 61
     5
292
     1
282
     1
141
0.0
142
0.0
 63
   256
  0
ENDBLK
  5
1A4
330
1A1
100
AcDbEntity
  8
0
100
AcDbBlockEnd
  0
BLOCK
  5
1A9
330
1A7
100
AcDbEntity
  8
0
100
AcDbBlockBegin
  2
*Paper_Space24
 70
     0
 10
0.0
 20
0.0
 30
0.0
  3
*Paper_Space24
  1

  0
VIEWPORT
  5
1AB
330
1A7
100
AcDbEntity
  8
0
100
AcDbViewport
 10
5.25
 20
4.0
 30
0.0
 40
11.638
 41
8.993
 68
     1
 69
     1
 12
5.25
 22
4.0
 13
0.0
 23
0.0
 14
0.5
 24
0.5
 15
0.5
 25
0.5
 16
0.0
 26
0.0
 36
1.0
 17
0.0
 27
0.0
 37
0.0
 42
50.0
 43
0.0
 44
0.0
 45
8.993
 50
0.0
 51
0.0
 72
   100
 90
   557152
  1

281
     0
 71
     1
 74
     0
110
0.0
120
0.0
130
0.0
111
1.0
121
0.0
131
0.0
112
0.0
122
1.0
132
0.0
 79
     0
146
0.0
170
     0
 61
     5
292
     1
282
     1
141
0.0
142
0.0
 63
   256
  0
VIEWPORT
  5
1AC
330
1A7
100
AcDbEntity
  8
0
100
AcDbViewport
 10
3.4999999
 20
5.25
 30
0.0
 40
576.0
 41
768.0
 68
     2
 69
     2
 12
0.0
 22
0.0
 13
0.0
 23
0.0
 14
0.5
 24
0.5
 15
0.5
 25
0.5
 16
0.0
 26
0.0
 36
1.0
 17
8.0
 27
-10.66666666666667
 37
0.0
 42
50.0
 43
0.0
 44
0.0
 45
1536.0
 50
0.0
 51
0.0
 72
   100
 90
   557152
  1

281
     0
 71
     1
 74
     0
110
0.0
120
0.0
130
0.0
111
1.0
121
0.0
131
0.0
112
0.0
122
1.0
132
0.0
 79
     0
146
0.0
170
     0
 61
     5
292
     1
282
     1
141
0.0
142
0.0
 63
   256
  0
ENDBLK
  5
1AA
330
1A7
100
AcDbEntity
  8
0
100
AcDbBlockEnd
  0
BLOCK
  5
1AF
330
1AD
100
AcDbEntity
  8
0
100
AcDbBlockBegin
  2
*Paper_Space25
 70
     0
 10
0.0
 20
0.0
 30
0.0
  3
*Paper_Space25
  1

  0
VIEWPORT
  5
1B1
330
1AD
100
AcDbEntity
  8
0
100
AcDbViewport
 10
5.25
 20
4.0
 30
0.0
 40
11.638
 41
8.993
 68
     1
 69
     1
 12
5.25
 22
4.0
 13
0.0
 23
0.0
 14
0.5
 24
0.5
 15
0.5
 25
0.5
 16
0.0
 26
0.0
 36
1.0
 17
0.0
 27
0.0
 37
0.0
 42
50.0
 43
0.0
 44
0.0
 45
8.993
 50
0.0
 51
0.0
 72
   100
 90
   557152
  1

281
     0
 71
     1
 74
     0
110
0.0
120
0.0
130
0.0
111
1.0
121
0.0
131
0.0
112
0.0
122
1.0
132
0.0
 79
     0
146
0.0
170
     0
 61
     5
292
     1
282
     1
141
0.0
142
0.0
 63
   256
  0
VIEWPORT
  5
1B2
330
1AD
100
AcDbEntity
  8
0
100
AcDbViewport
 10
3.4999999
 20
5.25
 30
0.0
 40
576.0
 41
768.0
 68
     2
 69
     2
 12
0.0
 22
0.0
 13
0.0
 23
0.0
 14
0.5
 24
0.5
 15
0.5
 25
0.5
 16
0.0
 26
0.0
 36
1.0
 17
8.0
 27
-10.66666666666667
 37
0.0
 42
50.0
 43
0.0
 44
0.0
 45
1536.0
 50
0.0
 51
0.0
 72
   100
 90
   557152
  1

281
     0
 71
     1
 74
     0
110
0.0
120
0.0
130
0.0
111
1.0
121
0.0
131
0.0
112
0.0
122
1.0
132
0.0
 79
     0
146
0.0
170
     0
 61
     5
292
     1
282
     1
141
0.0
142
0.0
 63
   256
  0
ENDBLK
  5
1B0
330
1AD
100
AcDbEntity
  8
0
100
AcDbBlockEnd
  0
BLOCK
  5
1B5
330
1B3
100
AcDbEntity
  8
0
100
AcDbBlockBegin
  2
*Paper_Space26
 70
     0
 10
0.0
 20
0.0
 30
0.0
  3
*Paper_Space26
  1

  0
VIEWPORT
  5
1B7
330
1B3
100
AcDbEntity
  8
0
100
AcDbViewport
 10
5.25
 20
4.0
 30
0.0
 40
11.638
 41
8.993
 68
     1
 69
     1
 12
5.25
 22
4.0
 13
0.0
 23
0.0
 14
0.5
 24
0.5
 15
0.5
 25
0.5
 16
0.0
 26
0.0
 36
1.0
 17
0.0
 27
0.0
 37
0.0
 42
50.0
 43
0.0
 44
0.0
 45
8.993
 50
0.0
 51
0.0
 72
   100
 90
   557152
  1

281
     0
 71
     1
 74
     0
110
0.0
120
0.0
130
0.0
111
1.0
121
0.0
131
0.0
112
0.0
122
1.0
132
0.0
 79
     0
146
0.0
170
     0
 61
     5
292
     1
282
     1
141
0.0
142
0.0
 63
   256
  0
VIEWPORT
  5
1B8
330
1B3
100
AcDbEntity
  8
0
100
AcDbViewport
 10
3.4999999
 20
5.25
 30
0.0
 40
576.0
 41
768.0
 68
     2
 69
     2
 12
0.0
 22
0.0
 13
0.0
 23
0.0
 14
0.5
 24
0.5
 15
0.5
 25
0.5
 16
0.0
 26
0.0
 36
1.0
 17
8.0
 27
-10.66666666666667
 37
0.0
 42
50.0
 43
0.0
 44
0.0
 45
1536.0
 50
0.0
 51
0.0
 72
   100
 90
   557152
  1

281
     0
 71
     1
 74
     0
110
0.0
120
0.0
130
0.0
111
1.0
121
0.0
131
0.0
112
0.0
122
1.0
132
0.0
 79
     0
146
0.0
170
     0
 61
     5
292
     1
282
     1
141
0.0
142
0.0
 63
   256
  0
ENDBLK
  5
1B6
330
1B3
100
AcDbEntity
  8
0
100
AcDbBlockEnd
  0
BLOCK
  5
1BB
330
1B9
100
AcDbEntity
  8
0
100
AcDbBlockBegin
  2
*Paper_Space27
 70
     0
 10
0.0
 20
0.0
 30
0.0
  3
*Paper_Space27
  1

  0
VIEWPORT
  5
1BD
330
1B9
100
AcDbEntity
  8
0
100
AcDbViewport
 10
5.25
 20
4.0
 30
0.0
 40
11.638
 41
8.993
 68
     1
 69
     1
 12
5.25
 22
4.0
 13
0.0
 23
0.0
 14
0.5
 24
0.5
 15
0.5
 25
0.5
 16
0.0
 26
0.0
 36
1.0
 17
0.0
 27
0.0
 37
0.0
 42
50.0
 43
0.0
 44
0.0
 45
8.993
 50
0.0
 51
0.0
 72
   100
 90
   557152
  1

281
     0
 71
     1
 74
     0
110
0.0
120
0.0
130
0.0
111
1.0
121
0.0
131
0.0
112
0.0
122
1.0
132
0.0
 79
     0
146
0.0
170
     0
 61
     5
292
     1
282
     1
141
0.0
142
0.0
 63
   256
  0
VIEWPORT
  5
1BE
330
1B9
100
AcDbEntity
  8
0
100
AcDbViewport
 10
3.4999999
 20
5.25
 30
0.0
 40
576.0
 41
768.0
 68
     2
 69
     2
 12
0.0
 22
0.0
 13
0.0
 23
0.0
 14
0.5
 24
0.5
 15
0.5
 25
0.5
 16
0.0
 26
0.0
 36
1.0
 17
8.0
 27
-10.66666666666667
 37
0.0
 42
50.0
 43
0.0
 44
0.0
 45
1536.0
 50
0.0
 51
0.0
 72
   100
 90
   557152
  1

281
     0
 71
     1
 74
     0
110
0.0
120
0.0
130
0.0
111
1.0
121
0.0
131
0.0
112
0.0
122
1.0
132
0.0
 79
     0
146
0.0
170
     0
 61
     5
292
     1
282
     1
141
0.0
142
0.0
 63
   256
  0
ENDBLK
  5
1BC
330
1B9
100
AcDbEntity
  8
0
100
AcDbBlockEnd
  0
BLOCK
  5
1C1
330
1BF
100
AcDbEntity
  8
0
100
AcDbBlockBegin
  2
*Paper_Space28
 70
     0
 10
0.0
 20
0.0
 30
0.0
  3
*Paper_Space28
  1

  0
VIEWPORT
  5
1C3
330
1BF
100
AcDbEntity
  8
0
100
AcDbViewport
 10
5.25
 20
4.0
 30
0.0
 40
11.638
 41
8.993
 68
     1
 69
     1
 12
5.25
 22
4.0
 13
0.0
 23
0.0
 14
0.5
 24
0.5
 15
0.5
 25
0.5
 16
0.0
 26
0.0
 36
1.0
 17
0.0
 27
0.0
 37
0.0
 42
50.0
 43
0.0
 44
0.0
 45
8.993
 50
0.0
 51
0.0
 72
   100
 90
   557152
  1

281
     0
 71
     1
 74
     0
110
0.0
120
0.0
130
0.0
111
1.0
121
0.0
131
0.0
112
0.0
122
1.0
132
0.0
 79
     0
146
0.0
170
     0
 61
     5
292
     1
282
     1
141
0.0
142
0.0
 63
   256
  0
VIEWPORT
  5
1C4
330
1BF
100
AcDbEntity
  8
0
100
AcDbViewport
 10
3.4999999
 20
5.25
 30
0.0
 40
576.0
 41
768.0
 68
     2
 69
     2
 12
0.0
 22
0.0
 13
0.0
 23
0.0
 14
0.5
 24
0.5
 15
0.5
 25
0.5
 16
0.0
 26
0.0
 36
1.0
 17
8.0
 27
-10.66666666666667
 37
0.0
 42
50.0
 43
0.0
 44
0.0
 45
1536.0
 50
0.0
 51
0.0
 72
   100
 90
   557152
  1

281
     0
 71
     1
 74
     0
110
0.0
120
0.0
130
0.0
111
1.0
121
0.0
131
0.0
112
0.0
122
1.0
132
0.0
 79
     0
146
0.0
170
     0
 61
     5
292
     1
282
     1
141
0.0
142
0.0
 63
   256
  0
ENDBLK
  5
1C2
330
1BF
100
AcDbEntity
  8
0
100
AcDbBlockEnd
  0
BLOCK
  5
1C7
330
1C5
100
AcDbEntity
  8
0
100
AcDbBlockBegin
  2
*Paper_Space29
 70
     0
 10
0.0
 20
0.0
 30
0.0
  3
*Paper_Space29
  1

  0
VIEWPORT
  5
1C9
330
1C5
100
AcDbEntity
  8
0
100
AcDbViewport
 10
5.25
 20
4.0
 30
0.0
 40
11.638
 41
8.993
 68
     1
 69
     1
 12
5.25
 22
4.0
 13
0.0
 23
0.0
 14
0.5
 24
0.5
 15
0.5
 25
0.5
 16
0.0
 26
0.0
 36
1.0
 17
0.0
 27
0.0
 37
0.0
 42
50.0
 43
0.0
 44
0.0
 45
8.993
 50
0.0
 51
0.0
 72
   100
 90
   557152
  1

281
     0
 71
     1
 74
     0
110
0.0
120
0.0
130
0.0
111
1.0
121
0.0
131
0.0
112
0.0
122
1.0
132
0.0
 79
     0
146
0.0
170
     0
 61
     5
292
     1
282
     1
141
0.0
142
0.0
 63
   256
  0
VIEWPORT
  5
1CA
330
1C5
100
AcDbEntity
  8
0
100
AcDbViewport
 10
3.4999999
 20
5.25
 30
0.0
 40
576.0
 41
768.0
 68
     2
 69
     2
 12
0.0
 22
0.0
 13
0.0
 23
0.0
 14
0.5
 24
0.5
 15
0.5
 25
0.5
 16
0.0
 26
0.0
 36
1.0
 17
8.0
 27
-10.66666666666667
 37
0.0
 42
50.0
 43
0.0
 44
0.0
 45
1536.0
 50
0.0
 51
0.0
 72
   100
 90
   557152
  1

281
     0
 71
     1
 74
     0
110
0.0
120
0.0
130
0.0
111
1.0
121
0.0
131
0.0
112
0.0
122
1.0
132
0.0
 79
     0
146
0.0
170
     0
 61
     5
292
     1
282
     1
141
0.0
142
0.0
 63
   256
  0
ENDBLK
  5
1C8
330
1C5
100
AcDbEntity
  8
0
100
AcDbBlockEnd
  0
BLOCK
  5
1CD
330
1CB
100
AcDbEntity
  8
0
100
AcDbBlockBegin
  2
*Paper_Space30
 70
     0
 10
0.0
 20
0.0
 30
0.0
  3
*Paper_Space30
  1

  0
VIEWPORT
  5
1CF
330
1CB
100
AcDbEntity
  8
0
100
AcDbViewport
 10
5.25
 20
4.0
 30
0.0
 40
11.638
 41
8.993
 68
     1
 69
     1
 12
5.25
 22
4.0
 13
0.0
 23
0.0
 14
0.5
 24
0.5
 15
0.5
 25
0.5
 16
0.0
 26
0.0
 36
1.0
 17
0.0
 27
0.0
 37
0.0
 42
50.0
 43
0.0
 44
0.0
 45
8.993
 50
0.0
 51
0.0
 72
   100
 90
   557152
  1

281
     0
 71
     1
 74
     0
110
0.0
120
0.0
130
0.0
111
1.0
121
0.0
131
0.0
112
0.0
122
1.0
132
0.0
 79
     0
146
0.0
170
     0
 61
     5
292
     1
282
     1
141
0.0
142
0.0
 63
   256
  0
VIEWPORT
  5
1D0
330
1CB
100
AcDbEntity
  8
0
100
AcDbViewport
 10
3.4999999
 20
5.25
 30
0.0
 40
576.0
 41
768.0
 68
     2
 69
     2
 12
0.0
 22
0.0
 13
0.0
 23
0.0
 14
0.5
 24
0.5
 15
0.5
 25
0.5
 16
0.0
 26
0.0
 36
1.0
 17
8.0
 27
-10.66666666666667
 37
0.0
 42
50.0
 43
0.0
 44
0.0
 45
1536.0
 50
0.0
 51
0.0
 72
   100
 90
   557152
  1

281
     0
 71
     1
 74
     0
110
0.0
120
0.0
130
0.0
111
1.0
121
0.0
131
0.0
112
0.0
122
1.0
132
0.0
 79
     0
146
0.0
170
     0
 61
     5
292
     1
282
     1
141
0.0
142
0.0
 63
   256
  0
ENDBLK
  5
1CE
330
1CB
100
AcDbEntity
  8
0
100
AcDbBlockEnd
  0
BLOCK
  5
1D3
330
1D1
100
AcDbEntity
  8
0
100
AcDbBlockBegin
  2
*Paper_Space31
 70
     0
 10
0.0
 20
0.0
 30
0.0
  3
*Paper_Space31
  1

  0
VIEWPORT
  5
1D5
330
1D1
100
AcDbEntity
  8
0
100
AcDbViewport
 10
5.25
 20
4.0
 30
0.0
 40
11.638
 41
8.993
 68
     1
 69
     1
 12
5.25
 22
4.0
 13
0.0
 23
0.0
 14
0.5
 24
0.5
 15
0.5
 25
0.5
 16
0.0
 26
0.0
 36
1.0
 17
0.0
 27
0.0
 37
0.0
 42
50.0
 43
0.0
 44
0.0
 45
8.993
 50
0.0
 51
0.0
 72
   100
 90
   557152
  1

281
     0
 71
     1
 74
     0
110
0.0
120
0.0
130
0.0
111
1.0
121
0.0
131
0.0
112
0.0
122
1.0
132
0.0
 79
     0
146
0.0
170
     0
 61
     5
292
     1
282
     1
141
0.0
142
0.0
 63
   256
  0
VIEWPORT
  5
1D6
330
1D1
100
AcDbEntity
  8
0
100
AcDbViewport
 10
3.4999999
 20
5.25
 30
0.0
 40
576.0
 41
768.0
 68
     2
 69
     2
 12
0.0
 22
0.0
 13
0.0
 23
0.0
 14
0.5
 24
0.5
 15
0.5
 25
0.5
 16
0.0
 26
0.0
 36
1.0
 17
8.0
 27
-10.66666666666667
 37
0.0
 42
50.0
 43
0.0
 44
0.0
 45
1536.0
 50
0.0
 51
0.0
 72
   100
 90
   557152
  1

281
     0
 71
     1
 74
     0
110
0.0
120
0.0
130
0.0
111
1.0
121
0.0
131
0.0
112
0.0
122
1.0
132
0.0
 79
     0
146
0.0
170
     0
 61
     5
292
     1
282
     1
141
0.0
142
0.0
 63
   256
  0
ENDBLK
  5
1D4
330
1D1
100
AcDbEntity
  8
0
100
AcDbBlockEnd
  0
BLOCK
  5
1D9
330
1D7
100
AcDbEntity
  8
0
100
AcDbBlockBegin
  2
*Paper_Space32
 70
     0
 10
0.0
 20
0.0
 30
0.0
  3
*Paper_Space32
  1

  0
VIEWPORT
  5
1DB
330
1D7
100
AcDbEntity
  8
0
100
AcDbViewport
 10
5.25
 20
4.0
 30
0.0
 40
11.638
 41
8.993
 68
     1
 69
     1
 12
5.25
 22
4.0
 13
0.0
 23
0.0
 14
0.5
 24
0.5
 15
0.5
 25
0.5
 16
0.0
 26
0.0
 36
1.0
 17
0.0
 27
0.0
 37
0.0
 42
50.0
 43
0.0
 44
0.0
 45
8.993
 50
0.0
 51
0.0
 72
   100
 90
   557152
  1

281
     0
 71
     1
 74
     0
110
0.0
120
0.0
130
0.0
111
1.0
121
0.0
131
0.0
112
0.0
122
1.0
132
0.0
 79
     0
146
0.0
170
     0
 61
     5
292
     1
282
     1
141
0.0
142
0.0
 63
   256
  0
VIEWPORT
  5
1DC
330
1D7
100
AcDbEntity
  8
0
100
AcDbViewport
 10
3.4999999
 20
5.25
 30
0.0
 40
576.0
 41
768.0
 68
     2
 69
     2
 12
0.0
 22
0.0
 13
0.0
 23
0.0
 14
0.5
 24
0.5
 15
0.5
 25
0.5
 16
0.0
 26
0.0
 36
1.0
 17
8.0
 27
-10.66666666666667
 37
0.0
 42
50.0
 43
0.0
 44
0.0
 45
1536.0
 50
0.0
 51
0.0
 72
   100
 90
   557152
  1

281
     0
 71
     1
 74
     0
110
0.0
120
0.0
130
0.0
111
1.0
121
0.0
131
0.0
112
0.0
122
1.0
132
0.0
 79
     0
146
0.0
170
     0
 61
     5
292
     1
282
     1
141
0.0
142
0.0
 63
   256
  0
ENDBLK
  5
1DA
330
1D7
100
AcDbEntity
  8
0
100
AcDbBlockEnd
  0
BLOCK
  5
1DF
330
1DD
100
AcDbEntity
  8
0
100
AcDbBlockBegin
  2
*Paper_Space33
 70
     0
 10
0.0
 20
0.0
 30
0.0
  3
*Paper_Space33
  1

  0
VIEWPORT
  5
1E1
330
1DD
100
AcDbEntity
  8
0
100
AcDbViewport
 10
5.25
 20
4.0
 30
0.0
 40
11.638
 41
8.993
 68
     1
 69
     1
 12
5.25
 22
4.0
 13
0.0
 23
0.0
 14
0.5
 24
0.5
 15
0.5
 25
0.5
 16
0.0
 26
0.0
 36
1.0
 17
0.0
 27
0.0
 37
0.0
 42
50.0
 43
0.0
 44
0.0
 45
8.993
 50
0.0
 51
0.0
 72
   100
 90
   557152
  1

281
     0
 71
     1
 74
     0
110
0.0
120
0.0
130
0.0
111
1.0
121
0.0
131
0.0
112
0.0
122
1.0
132
0.0
 79
     0
146
0.0
170
     0
 61
     5
292
     1
282
     1
141
0.0
142
0.0
 63
   256
  0
VIEWPORT
  5
1E2
330
1DD
100
AcDbEntity
  8
0
100
AcDbViewport
 10
3.4999999
 20
5.25
 30
0.0
 40
576.0
 41
768.0
 68
     2
 69
     2
 12
0.0
 22
0.0
 13
0.0
 23
0.0
 14
0.5
 24
0.5
 15
0.5
 25
0.5
 16
0.0
 26
0.0
 36
1.0
 17
8.0
 27
-10.66666666666667
 37
0.0
 42
50.0
 43
0.0
 44
0.0
 45
1536.0
 50
0.0
 51
0.0
 72
   100
 90
   557152
  1

281
     0
 71
     1
 74
     0
110
0.0
120
0.0
130
0.0
111
1.0
121
0.0
131
0.0
112
0.0
122
1.0
132
0.0
 79
     0
146
0.0
170
     0
 61
     5
292
     1
282
     1
141
0.0
142
0.0
 63
   256
  0
ENDBLK
  5
1E0
330
1DD
100
AcDbEntity
  8
0
100
AcDbBlockEnd
  0
BLOCK
  5
1E5
330
1E3
100
AcDbEntity
  8
0
100
AcDbBlockBegin
  2
*Paper_Space34
 70
     0
 10
0.0
 20
0.0
 30
0.0
  3
*Paper_Space34
  1

  0
VIEWPORT
  5
1E7
330
1E3
100
AcDbEntity
  8
0
100
AcDbViewport
 10
5.25
 20
4.0
 30
0.0
 40
11.638
 41
8.993
 68
     1
 69
     1
 12
5.25
 22
4.0
 13
0.0
 23
0.0
 14
0.5
 24
0.5
 15
0.5
 25
0.5
 16
0.0
 26
0.0
 36
1.0
 17
0.0
 27
0.0
 37
0.0
 42
50.0
 43
0.0
 44
0.0
 45
8.993
 50
0.0
 51
0.0
 72
   100
 90
   557152
  1

281
     0
 71
     1
 74
     0
110
0.0
120
0.0
130
0.0
111
1.0
121
0.0
131
0.0
112
0.0
122
1.0
132
0.0
 79
     0
146
0.0
170
     0
 61
     5
292
     1
282
     1
141
0.0
142
0.0
 63
   256
  0
VIEWPORT
  5
1E8
330
1E3
100
AcDbEntity
  8
0
100
AcDbViewport
 10
3.4999999
 20
5.25
 30
0.0
 40
576.0
 41
768.0
 68
     2
 69
     2
 12
0.0
 22
0.0
 13
0.0
 23
0.0
 14
0.5
 24
0.5
 15
0.5
 25
0.5
 16
0.0
 26
0.0
 36
1.0
 17
8.0
 27
-10.66666666666667
 37
0.0
 42
50.0
 43
0.0
 44
0.0
 45
1536.0
 50
0.0
 51
0.0
 72
   100
 90
   557152
  1

281
     0
 71
     1
 74
     0
110
0.0
120
0.0
130
0.0
111
1.0
121
0.0
131
0.0
112
0.0
122
1.0
132
0.0
 79
     0
146
0.0
170
     0
 61
     5
292
     1
282
     1
141
0.0
142
0.0
 63
   256
  0
ENDBLK
  5
1E6
330
1E3
100
AcDbEntity
  8
0
100
AcDbBlockEnd
  0
BLOCK
  5
1EB
330
1E9
100
AcDbEntity
  8
0
100
AcDbBlockBegin
  2
*Paper_Space35
 70
     0
 10
0.0
 20
0.0
 30
0.0
  3
*Paper_Space35
  1

  0
VIEWPORT
  5
1ED
330
1E9
100
AcDbEntity
  8
0
100
AcDbViewport
 10
5.25
 20
4.0
 30
0.0
 40
11.638
 41
8.993
 68
     1
 69
     1
 12
5.25
 22
4.0
 13
0.0
 23
0.0
 14
0.5
 24
0.5
 15
0.5
 25
0.5
 16
0.0
 26
0.0
 36
1.0
 17
0.0
 27
0.0
 37
0.0
 42
50.0
 43
0.0
 44
0.0
 45
8.993
 50
0.0
 51
0.0
 72
   100
 90
   557152
  1

281
     0
 71
     1
 74
     0
110
0.0
120
0.0
130
0.0
111
1.0
121
0.0
131
0.0
112
0.0
122
1.0
132
0.0
 79
     0
146
0.0
170
     0
 61
     5
292
     1
282
     1
141
0.0
142
0.0
 63
   256
  0
VIEWPORT
  5
1EE
330
1E9
100
AcDbEntity
  8
0
100
AcDbViewport
 10
3.4999999
 20
5.25
 30
0.0
 40
576.0
 41
768.0
 68
     2
 69
     2
 12
0.0
 22
0.0
 13
0.0
 23
0.0
 14
0.5
 24
0.5
 15
0.5
 25
0.5
 16
0.0
 26
0.0
 36
1.0
 17
8.0
 27
-10.66666666666667
 37
0.0
 42
50.0
 43
0.0
 44
0.0
 45
1536.0
 50
0.0
 51
0.0
 72
   100
 90
   557152
  1

281
     0
 71
     1
 74
     0
110
0.0
120
0.0
130
0.0
111
1.0
121
0.0
131
0.0
112
0.0
122
1.0
132
0.0
 79
     0
146
0.0
170
     0
 61
     5
292
     1
282
     1
141
0.0
142
0.0
 63
   256
  0
ENDBLK
  5
1EC
330
1E9
100
AcDbEntity
  8
0
100
AcDbBlockEnd
  0
BLOCK
  5
1F1
330
1EF
100
AcDbEntity
  8
0
100
AcDbBlockBegin
  2
*Paper_Space36
 70
     0
 10
0.0
 20
0.0
 30
0.0
  3
*Paper_Space36
  1

  0
VIEWPORT
  5
1F3
330
1EF
100
AcDbEntity
  8
0
100
AcDbViewport
 10
5.25
 20
4.0
 30
0.0
 40
11.638
 41
8.993
 68
     1
 69
     1
 12
5.25
 22
4.0
 13
0.0
 23
0.0
 14
0.5
 24
0.5
 15
0.5
 25
0.5
 16
0.0
 26
0.0
 36
1.0
 17
0.0
 27
0.0
 37
0.0
 42
50.0
 43
0.0
 44
0.0
 45
8.993
 50
0.0
 51
0.0
 72
   100
 90
   557152
  1

281
     0
 71
     1
 74
     0
110
0.0
120
0.0
130
0.0
111
1.0
121
0.0
131
0.0
112
0.0
122
1.0
132
0.0
 79
     0
146
0.0
170
     0
 61
     5
292
     1
282
     1
141
0.0
142
0.0
 63
   256
  0
VIEWPORT
  5
1F4
330
1EF
100
AcDbEntity
  8
0
100
AcDbViewport
 10
3.4999999
 20
5.25
 30
0.0
 40
576.0
 41
768.0
 68
     2
 69
     2
 12
0.0
 22
0.0
 13
0.0
 23
0.0
 14
0.5
 24
0.5
 15
0.5
 25
0.5
 16
0.0
 26
0.0
 36
1.0
 17
8.0
 27
-10.66666666666667
 37
0.0
 42
50.0
 43
0.0
 44
0.0
 45
1536.0
 50
0.0
 51
0.0
 72
   100
 90
   557152
  1

281
     0
 71
     1
 74
     0
110
0.0
120
0.0
130
0.0
111
1.0
121
0.0
131
0.0
112
0.0
122
1.0
132
0.0
 79
     0
146
0.0
170
     0
 61
     5
292
     1
282
     1
141
0.0
142
0.0
 63
   256
  0
ENDBLK
  5
1F2
330
1EF
100
AcDbEntity
  8
0
100
AcDbBlockEnd
  0
BLOCK
  5
1F7
330
1F5
100
AcDbEntity
  8
0
100
AcDbBlockBegin
  2
*Paper_Space37
 70
     0
 10
0.0
 20
0.0
 30
0.0
  3
*Paper_Space37
  1

  0
VIEWPORT
  5
1F9
330
1F5
100
AcDbEntity
  8
0
100
AcDbViewport
 10
5.25
 20
4.0
 30
0.0
 40
11.638
 41
8.993
 68
     1
 69
     1
 12
5.25
 22
4.0
 13
0.0
 23
0.0
 14
0.5
 24
0.5
 15
0.5
 25
0.5
 16
0.0
 26
0.0
 36
1.0
 17
0.0
 27
0.0
 37
0.0
 42
50.0
 43
0.0
 44
0.0
 45
8.993
 50
0.0
 51
0.0
 72
   100
 90
   557152
  1

281
     0
 71
     1
 74
     0
110
0.0
120
0.0
130
0.0
111
1.0
121
0.0
131
0.0
112
0.0
122
1.0
132
0.0
 79
     0
146
0.0
170
     0
 61
     5
292
     1
282
     1
141
0.0
142
0.0
 63
   256
  0
VIEWPORT
  5
1FA
330
1F5
100
AcDbEntity
  8
0
100
AcDbViewport
 10
3.4999999
 20
5.25
 30
0.0
 40
576.0
 41
768.0
 68
     2
 69
     2
 12
0.0
 22
0.0
 13
0.0
 23
0.0
 14
0.5
 24
0.5
 15
0.5
 25
0.5
 16
0.0
 26
0.0
 36
1.0
 17
8.0
 27
-10.66666666666667
 37
0.0
 42
50.0
 43
0.0
 44
0.0
 45
1536.0
 50
0.0
 51
0.0
 72
   100
 90
   557152
  1

281
     0
 71
     1
 74
     0
110
0.0
120
0.0
130
0.0
111
1.0
121
0.0
131
0.0
112
0.0
122
1.0
132
0.0
 79
     0
146
0.0
170
     0
 61
     5
292
     1
282
     1
141
0.0
142
0.0
 63
   256
  0
ENDBLK
  5
1F8
330
1F5
100
AcDbEntity
  8
0
100
AcDbBlockEnd
  0
BLOCK
  5
1FD
330
1FB
100
AcDbEntity
  8
0
100
AcDbBlockBegin
  2
*Paper_Space38
 70
     0
 10
0.0
 20
0.0
 30
0.0
  3
*Paper_Space38
  1

  0
VIEWPORT
  5
1FF
330
1FB
100
AcDbEntity
  8
0
100
AcDbViewport
 10
5.25
 20
4.0
 30
0.0
 40
11.638
 41
8.993
 68
     1
 69
     1
 12
5.25
 22
4.0
 13
0.0
 23
0.0
 14
0.5
 24
0.5
 15
0.5
 25
0.5
 16
0.0
 26
0.0
 36
1.0
 17
0.0
 27
0.0
 37
0.0
 42
50.0
 43
0.0
 44
0.0
 45
8.993
 50
0.0
 51
0.0
 72
   100
 90
   557152
  1

281
     0
 71
     1
 74
     0
110
0.0
120
0.0
130
0.0
111
1.0
121
0.0
131
0.0
112
0.0
122
1.0
132
0.0
 79
     0
146
0.0
170
     0
 61
     5
292
     1
282
     1
141
0.0
142
0.0
 63
   256
  0
VIEWPORT
  5
200
330
1FB
100
AcDbEntity
  8
0
100
AcDbViewport
 10
3.4999999
 20
5.25
 30
0.0
 40
576.0
 41
768.0
 68
     2
 69
     2
 12
0.0
 22
0.0
 13
0.0
 23
0.0
 14
0.5
 24
0.5
 15
0.5
 25
0.5
 16
0.0
 26
0.0
 36
1.0
 17
8.0
 27
-10.66666666666667
 37
0.0
 42
50.0
 43
0.0
 44
0.0
 45
1536.0
 50
0.0
 51
0.0
 72
   100
 90
   557152
  1

281
     0
 71
     1
 74
     0
110
0.0
120
0.0
130
0.0
111
1.0
121
0.0
131
0.0
112
0.0
122
1.0
132
0.0
 79
     0
146
0.0
170
     0
 61
     5
292
     1
282
     1
141
0.0
142
0.0
 63
   256
  0
ENDBLK
  5
1FE
330
1FB
100
AcDbEntity
  8
0
100
AcDbBlockEnd
  0
ENDSEC
  0
SECTION
  2
ENTITIES
  0
POLYLINE
  5
40
330
1F
100
AcDbEntity
  8
Drawing
 62
     7
100
AcDb2dPolyline
 66
     1
 10
0.0
 20
0.0
 30
0.0
  0
VERTEX
  5
41
330
40
100
AcDbEntity
  8
Drawing
 62
     7
100
AcDbVertex
100
AcDb2dVertex
 10
0.3013874802794684
 20
-0.1095954473743524
 30
0.0
  0
VERTEX
  5
42
330
40
100
AcDbEntity
  8
Drawing
 62
     7
100
AcDbVertex
100
AcDb2dVertex
 10
15.56255352715799
 20
-0.1095954473743524
 30
0.0
  0
VERTEX
  5
43
330
40
100
AcDbEntity
  8
Drawing
 62
     7
100
AcDbVertex
100
AcDb2dVertex
 10
15.56255352715799
 20
-20.74093841559613
 30
0.0
  0
VERTEX
  5
44
330
40
100
AcDbEntity
  8
Drawing
 62
     7
100
AcDbVertex
100
AcDb2dVertex
 10
0.3013874802794684
 20
-20.74093841559613
 30
0.0
  0
VERTEX
  5
45
330
40
100
AcDbEntity
  8
Drawing
 62
     7
100
AcDbVertex
100
AcDb2dVertex
 10
0.3013874802794684
 20
-0.1095954473743524
 30
0.0
  0
SEQEND
  5
46
330
40
100
AcDbEntity
  8
Drawing
 62
     7
  0
INSERT
  5
72
330
1F
100
AcDbEntity
  8
Drawing
100
AcDbBlockReference
  2
PD_452
 10
0.0
 20
0.0
 30
0.0
  0
INSERT
  5
9C
330
1F
100
AcDbEntity
  8
Drawing
100
AcDbBlockReference
  2
PD_455
 10
0.0
 20
0.0
 30
0.0
  0
INSERT
  5
E3
330
1F
100
AcDbEntity
  8
Drawing
100
AcDbBlockReference
  2
PD_456
 10
0.0
 20
0.0
 30
0.0
  0
INSERT
  5
14C
330
1F
100
AcDbEntity
  8
Drawing
100
AcDbBlockReference
  2
PD_457
 10
0.0
 20
0.0
 30
0.0
  0
VIEWPORT
  5
151
330
14D
100
AcDbEntity
 67
     1
  8
0
100
AcDbViewport
 10
5.25
 20
4.0
 30
0.0
 40
11.638
 41
8.993
 68
     1
 69
     1
 12
5.25
 22
4.0
 13
0.0
 23
0.0
 14
0.5
 24
0.5
 15
0.5
 25
0.5
 16
0.0
 26
0.0
 36
1.0
 17
0.0
 27
0.0
 37
0.0
 42
50.0
 43
0.0
 44
0.0
 45
8.993
 50
0.0
 51
0.0
 72
   100
 90
   557152
  1

281
     0
 71
     1
 74
     0
110
0.0
120
0.0
130
0.0
111
1.0
121
0.0
131
0.0
112
0.0
122
1.0
132
0.0
 79
     0
146
0.0
170
     0
 61
     5
292
     1
282
     1
141
0.0
142
0.0
 63
   256
  0
VIEWPORT
  5
152
330
14D
100
AcDbEntity
 67
     1
  8
0
100
AcDbViewport
 10
3.4999999
 20
5.25
 30
0.0
 40
576.0
 41
768.0
 68
     2
 69
     2
 12
0.0
 22
0.0
 13
0.0
 23
0.0
 14
0.5
 24
0.5
 15
0.5
 25
0.5
 16
0.0
 26
0.0
 36
1.0
 17
8.0
 27
-10.66666666666667
 37
0.0
 42
50.0
 43
0.0
 44
0.0
 45
1536.0
 50
0.0
 51
0.0
 72
   100
 90
   557152
  1

281
     0
 71
     1
 74
     0
110
0.0
120
0.0
130
0.0
111
1.0
121
0.0
131
0.0
112
0.0
122
1.0
132
0.0
 79
     0
146
0.0
170
     0
 61
     5
292
     1
282
     1
141
0.0
142
0.0
 63
   256
  0
ENDSEC
  0
SECTION
  2
OBJECTS
  0
DICTIONARY
  5
C
330
0
100
AcDbDictionary
281
     1
  3
ACAD_GROUP
350
D
  3
ACAD_LAYOUT
350
1A
  3
ACAD_MATERIAL
350
3B
  3
ACAD_MLEADERSTYLE
350
22C
  3
ACAD_MLINESTYLE
350
17
  3
ACAD_PLOTSETTINGS
350
19
  3
ACAD_PLOTSTYLENAME
350
E
  3
ACAD_SCALELIST
350
207
  3
ACAD_TABLESTYLE
350
22B
  3
ACAD_VISUALSTYLE
350
2A
  3
AcDbVariableDictionary
350
229
  0
DICTIONARY
  5
D
102
{ACAD_REACTORS
330
C
102
}
330
C
100
AcDbDictionary
281
     1
  0
DICTIONARY
  5
1A
102
{ACAD_REACTORS
330
C
102
}
330
C
100
AcDbDictionary
281
     1
  3
clg demo
350
15A
  3
clg new
350
166
  3
demo plan
350
154
  3
demo roof
350
172
  3
engineer plan
350
17E
  3
furn
350
16C
  3
Layout 19
350
1AE
  3
Layout 20
350
1B4
  3
Layout 21
350
1BA
  3
Layout 22
350
1C0
  3
Layout 23
350
1C6
  3
Layout 24
350
1CC
  3
Layout 25
350
1D2
  3
Layout 26
350
1D8
  3
Layout 27
350
1DE
  3
Layout 28
350
1E4
  3
Layout 29
350
1EA
  3
Layout 30
350
1F0
  3
Layout 31
350
1F6
  3
Layout 32
350
1FC
  3
Layout 33
350
202
  3
Model
350
22
  3
new roof
350
178
  3
new work
350
160
  3
Setup 10
350
18A
  3
Setup 11
350
190
  3
Setup 12
350
196
  3
Setup 13
350
19C
  3
Setup 14
350
1A2
  3
Setup 15
350
1A8
  3
Working Layout
350
14E
  3
X
350
184
  0
DICTIONARY
  5
3B
102
{ACAD_REACTORS
330
C
102
}
330
C
100
AcDbDictionary
281
     1
  3
ByBlock
350
3D
  3
ByLayer
350
3C
  3
Global
350
3E
  0
DICTIONARY
  5
22C
102
{ACAD_REACTORS
330
C
102
}
330
C
100
AcDbDictionary
281
     1
  0
DICTIONARY
  5
17
102
{ACAD_REACTORS
330
C
102
}
330
C
100
AcDbDictionary
281
     1
  3
Standard
350
18
  0
DICTIONARY
  5
19
102
{ACAD_REACTORS
330
C
102
}
330
C
100
AcDbDictionary
281
     1
  0
ACDBDICTIONARYWDFLT
  5
E
102
{ACAD_REACTORS
330
C
102
}
330
C
100
AcDbDictionary
281
     1
  3
Normal
350
F
100
AcDbDictionaryWithDefault
340
F
  0
DICTIONARY
  5
207
102
{ACAD_REACTORS
330
C
102
}
330
C
100
AcDbDictionary
281
     1
  3
A0
350
208
  3
A1
350
209
  3
A2
350
20A
  3
A3
350
20B
  3
A4
350
20C
  3
A5
350
20D
  3
A6
350
20E
  3
A7
350
20F
  3
A8
350
210
  3
A9
350
211
  3
B0
350
212
  3
B1
350
213
  3
B2
350
214
  3
B3
350
215
  3
B4
350
216
  3
B5
350
217
  3
B6
350
218
  3
B7
350
219
  3
B8
350
21A
  3
B9
350
21B
  3
C0
350
21C
  3
C1
350
21D
  3
C2
350
21E
  3
C3
350
21F
  3
C4
350
220
  3
C5
350
221
  3
C6
350
222
  3
C7
350
223
  3
C8
350
224
  3
C9
350
225
  3
D0
350
226
  3
D1
350
227
  3
D2
350
228
  0
DICTIONARY
  5
22B
102
{ACAD_REACTORS
330
C
102
}
330
C
100
AcDbDictionary
281
     1
  0
DICTIONARY
  5
2A
102
{ACAD_REACTORS
330
C
102
}
330
C
100
AcDbDictionary
281
     1
  3
2dWireframe
350
2F
  3
3D Hidden
350
31
  3
3dWireframe
350
30
  3
Basic
350
32
  3
Brighten
350
36
  3
ColorChange
350
3A
  3
Conceptual
350
34
  3
Dim
350
35
  3
Facepattern
350
39
  3
Flat
350
2B
  3
FlatWithEdges
350
2C
  3
Gouraud
350
2D
  3
GouraudWithEdges
350
2E
  3
Linepattern
350
38
  3
Realistic
350
33
  3
Thicken
350
37
  0
DICTIONARY
  5
229
102
{ACAD_REACTORS
330
C
102
}
330
C
100
AcDbDictionary
281
     1
  3
CANNOSCALE
350
22A
  0
LAYOUT
  5
15A
102
{ACAD_REACTORS
330
1A
102
}
330
1A
100
AcDbPlotSettings
  1

  2
none_device
  4
ANSI_A_(11.00_x_8.50_Inches)
  6

 40
6.35
 41
19.05
 42
6.35000508
 43
19.05000254
 44
279.4
 45
215.9
 46
0.0
 47
0.0
 48
0.0
 49
0.0
140
0.0
141
0.0
142
1.0
143
1.0
 70
   688
 72
     0
 73
     1
 74
     5
  7

 75
    16
 76
     0
 77
     2
 78
   300
147
1.0
148
0.0
149
0.0
100
AcDbLayout
  1
clg demo
 70
     1
 71
     3
 10
0.0
 20
0.0
 11
0.0
 21
0.0
 12
0.0
 22
0.0
 32
0.0
 14
0.0
 24
0.0
 34
0.0
 15
0.0
 25
0.0
 35
0.0
146
0.0
 13
0.0
 23
0.0
 33
0.0
 16
1.0
 26
0.0
 36
0.0
 17
0.0
 27
1.0
 37
0.0
 76
     0
330
159
331
15D
  0
LAYOUT
  5
166
102
{ACAD_REACTORS
330
1A
102
}
330
1A
100
AcDbPlotSettings
  1

  2
none_device
  4
ANSI_A_(11.00_x_8.50_Inches)
  6

 40
6.35
 41
19.05
 42
6.35000508
 43
19.05000254
 44
279.4
 45
215.9
 46
0.0
 47
0.0
 48
0.0
 49
0.0
140
0.0
141
0.0
142
1.0
143
1.0
 70
   688
 72
     0
 73
     1
 74
     5
  7

 75
    16
 76
     0
 77
     2
 78
   300
147
1.0
148
0.0
149
0.0
100
AcDbLayout
  1
clg new
 70
     1
 71
     5
 10
0.0
 20
0.0
 11
0.0
 21
0.0
 12
0.0
 22
0.0
 32
0.0
 14
0.0
 24
0.0
 34
0.0
 15
0.0
 25
0.0
 35
0.0
146
0.0
 13
0.0
 23
0.0
 33
0.0
 16
1.0
 26
0.0
 36
0.0
 17
0.0
 27
1.0
 37
0.0
 76
     0
330
165
331
169
  0
LAYOUT
  5
154
102
{ACAD_REACTORS
330
1A
102
}
330
1A
100
AcDbPlotSettings
  1

  2
none_device
  4
ANSI_A_(11.00_x_8.50_Inches)
  6

 40
6.35
 41
19.05
 42
6.35000508
 43
19.05000254
 44
279.4
 45
215.9
 46
0.0
 47
0.0
 48
0.0
 49
0.0
140
0.0
141
0.0
142
1.0
143
1.0
 70
   688
 72
     0
 73
     1
 74
     5
  7

 75
    16
 76
     0
 77
     2
 78
   300
147
1.0
148
0.0
149
0.0
100
AcDbLayout
  1
demo plan
 70
     1
 71
     2
 10
0.0
 20
0.0
 11
0.0
 21
0.0
 12
0.0
 22
0.0
 32
0.0
 14
0.0
 24
0.0
 34
0.0
 15
0.0
 25
0.0
 35
0.0
146
0.0
 13
0.0
 23
0.0
 33
0.0
 16
1.0
 26
0.0
 36
0.0
 17
0.0
 27
1.0
 37
0.0
 76
     0
330
153
331
157
  0
LAYOUT
  5
172
102
{ACAD_REACTORS
330
1A
102
}
330
1A
100
AcDbPlotSettings
  1

  2
none_device
  4
ANSI_A_(11.00_x_8.50_Inches)
  6

 40
6.35
 41
19.05
 42
6.35000508
 43
19.05000254
 44
279.4
 45
215.9
 46
0.0
 47
0.0
 48
0.0
 49
0.0
140
0.0
141
0.0
142
1.0
143
1.0
 70
   688
 72
     0
 73
     1
 74
     5
  7

 75
    16
 76
     0
 77
     2
 78
   300
147
1.0
148
0.0
149
0.0
100
AcDbLayout
  1
demo roof
 70
     1
 71
     7
 10
0.0
 20
0.0
 11
0.0
 21
0.0
 12
0.0
 22
0.0
 32
0.0
 14
0.0
 24
0.0
 34
0.0
 15
0.0
 25
0.0
 35
0.0
146
0.0
 13
0.0
 23
0.0
 33
0.0
 16
1.0
 26
0.0
 36
0.0
 17
0.0
 27
1.0
 37
0.0
 76
     0
330
171
331
175
  0
LAYOUT
  5
17E
102
{ACAD_REACTORS
330
1A
102
}
330
1A
100
AcDbPlotSettings
  1

  2
none_device
  4
ANSI_A_(11.00_x_8.50_Inches)
  6

 40
6.35
 41
19.05
 42
6.35000508
 43
19.05000254
 44
279.4
 45
215.9
 46
0.0
 47
0.0
 48
0.0
 49
0.0
140
0.0
141
0.0
142
1.0
143
1.0
 70
   688
 72
     0
 73
     1
 74
     5
  7

 75
    16
 76
     0
 77
     2
 78
   300
147
1.0
148
0.0
149
0.0
100
AcDbLayout
  1
engineer plan
 70
     1
 71
     9
 10
0.0
 20
0.0
 11
0.0
 21
0.0
 12
0.0
 22
0.0
 32
0.0
 14
0.0
 24
0.0
 34
0.0
 15
0.0
 25
0.0
 35
0.0
146
0.0
 13
0.0
 23
0.0
 33
0.0
 16
1.0
 26
0.0
 36
0.0
 17
0.0
 27
1.0
 37
0.0
 76
     0
330
17D
331
181
  0
LAYOUT
  5
16C
102
{ACAD_REACTORS
330
1A
102
}
330
1A
100
AcDbPlotSettings
  1

  2
none_device
  4
ANSI_A_(11.00_x_8.50_Inches)
  6

 40
6.35
 41
19.05
 42
6.35000508
 43
19.05000254
 44
279.4
 45
215.9
 46
0.0
 47
0.0
 48
0.0
 49
0.0
140
0.0
141
0.0
142
1.0
143
1.0
 70
   688
 72
     0
 73
     1
 74
     5
  7

 75
    16
 76
     0
 77
     2
 78
   300
147
1.0
148
0.0
149
0.0
100
AcDbLayout
  1
furn
 70
     1
 71
     6
 10
0.0
 20
0.0
 11
0.0
 21
0.0
 12
0.0
 22
0.0
 32
0.0
 14
0.0
 24
0.0
 34
0.0
 15
0.0
 25
0.0
 35
0.0
146
0.0
 13
0.0
 23
0.0
 33
0.0
 16
1.0
 26
0.0
 36
0.0
 17
0.0
 27
1.0
 37
0.0
 76
     0
330
16B
331
16F
  0
LAYOUT
  5
1AE
102
{ACAD_REACTORS
330
1A
102
}
330
1A
100
AcDbPlotSettings
  1

  2
none_device
  4
ANSI_A_(11.00_x_8.50_Inches)
  6

 40
6.35
 41
19.05
 42
6.35000508
 43
19.05000254
 44
279.4
 45
215.9
 46
0.0
 47
0.0
 48
0.0
 49
0.0
140
0.0
141
0.0
142
1.0
143
1.0
 70
   688
 72
     0
 73
     1
 74
     5
  7

 75
    16
 76
     0
 77
     2
 78
   300
147
1.0
148
0.0
149
0.0
100
AcDbLayout
  1
Layout 19
 70
     1
 71
    17
 10
0.0
 20
0.0
 11
0.0
 21
0.0
 12
0.0
 22
0.0
 32
0.0
 14
0.0
 24
0.0
 34
0.0
 15
0.0
 25
0.0
 35
0.0
146
0.0
 13
0.0
 23
0.0
 33
0.0
 16
1.0
 26
0.0
 36
0.0
 17
0.0
 27
1.0
 37
0.0
 76
     0
330
1AD
331
1B1
  0
LAYOUT
  5
1B4
102
{ACAD_REACTORS
330
1A
102
}
330
1A
100
AcDbPlotSettings
  1

  2
none_device
  4
ANSI_A_(11.00_x_8.50_Inches)
  6

 40
6.35
 41
19.05
 42
6.35000508
 43
19.05000254
 44
279.4
 45
215.9
 46
0.0
 47
0.0
 48
0.0
 49
0.0
140
0.0
141
0.0
142
1.0
143
1.0
 70
   688
 72
     0
 73
     1
 74
     5
  7

 75
    16
 76
     0
 77
     2
 78
   300
147
1.0
148
0.0
149
0.0
100
AcDbLayout
  1
Layout 20
 70
     1
 71
    18
 10
0.0
 20
0.0
 11
0.0
 21
0.0
 12
0.0
 22
0.0
 32
0.0
 14
0.0
 24
0.0
 34
0.0
 15
0.0
 25
0.0
 35
0.0
146
0.0
 13
0.0
 23
0.0
 33
0.0
 16
1.0
 26
0.0
 36
0.0
 17
0.0
 27
1.0
 37
0.0
 76
     0
330
1B3
331
1B7
  0
LAYOUT
  5
1BA
102
{ACAD_REACTORS
330
1A
102
}
330
1A
100
AcDbPlotSettings
  1

  2
none_device
  4
ANSI_A_(11.00_x_8.50_Inches)
  6

 40
6.35
 41
19.05
 42
6.35000508
 43
19.05000254
 44
279.4
 45
215.9
 46
0.0
 47
0.0
 48
0.0
 49
0.0
140
0.0
141
0.0
142
1.0
143
1.0
 70
   688
 72
     0
 73
     1
 74
     5
  7

 75
    16
 76
     0
 77
     2
 78
   300
147
1.0
148
0.0
149
0.0
100
AcDbLayout
  1
Layout 21
 70
     1
 71
    19
 10
0.0
 20
0.0
 11
0.0
 21
0.0
 12
0.0
 22
0.0
 32
0.0
 14
0.0
 24
0.0
 34
0.0
 15
0.0
 25
0.0
 35
0.0
146
0.0
 13
0.0
 23
0.0
 33
0.0
 16
1.0
 26
0.0
 36
0.0
 17
0.0
 27
1.0
 37
0.0
 76
     0
330
1B9
331
1BD
  0
LAYOUT
  5
1C0
102
{ACAD_REACTORS
330
1A
102
}
330
1A
100
AcDbPlotSettings
  1

  2
none_device
  4
ANSI_A_(11.00_x_8.50_Inches)
  6

 40
6.35
 41
19.05
 42
6.35000508
 43
19.05000254
 44
279.4
 45
215.9
 46
0.0
 47
0.0
 48
0.0
 49
0.0
140
0.0
141
0.0
142
1.0
143
1.0
 70
   688
 72
     0
 73
     1
 74
     5
  7

 75
    16
 76
     0
 77
     2
 78
   300
147
1.0
148
0.0
149
0.0
100
AcDbLayout
  1
Layout 22
 70
     1
 71
    20
 10
0.0
 20
0.0
 11
0.0
 21
0.0
 12
0.0
 22
0.0
 32
0.0
 14
0.0
 24
0.0
 34
0.0
 15
0.0
 25
0.0
 35
0.0
146
0.0
 13
0.0
 23
0.0
 33
0.0
 16
1.0
 26
0.0
 36
0.0
 17
0.0
 27
1.0
 37
0.0
 76
     0
330
1BF
331
1C3
  0
LAYOUT
  5
1C6
102
{ACAD_REACTORS
330
1A
102
}
330
1A
100
AcDbPlotSettings
  1

  2
none_device
  4
ANSI_A_(11.00_x_8.50_Inches)
  6

 40
6.35
 41
19.05
 42
6.35000508
 43
19.05000254
 44
279.4
 45
215.9
 46
0.0
 47
0.0
 48
0.0
 49
0.0
140
0.0
141
0.0
142
1.0
143
1.0
 70
   688
 72
     0
 73
     1
 74
     5
  7

 75
    16
 76
     0
 77
     2
 78
   300
147
1.0
148
0.0
149
0.0
100
AcDbLayout
  1
Layout 23
 70
     1
 71
    21
 10
0.0
 20
0.0
 11
0.0
 21
0.0
 12
0.0
 22
0.0
 32
0.0
 14
0.0
 24
0.0
 34
0.0
 15
0.0
 25
0.0
 35
0.0
146
0.0
 13
0.0
 23
0.0
 33
0.0
 16
1.0
 26
0.0
 36
0.0
 17
0.0
 27
1.0
 37
0.0
 76
     0
330
1C5
331
1C9
  0
LAYOUT
  5
1CC
102
{ACAD_REACTORS
330
1A
102
}
330
1A
100
AcDbPlotSettings
  1

  2
none_device
  4
ANSI_A_(11.00_x_8.50_Inches)
  6

 40
6.35
 41
19.05
 42
6.35000508
 43
19.05000254
 44
279.4
 45
215.9
 46
0.0
 47
0.0
 48
0.0
 49
0.0
140
0.0
141
0.0
142
1.0
143
1.0
 70
   688
 72
     0
 73
     1
 74
     5
  7

 75
    16
 76
     0
 77
     2
 78
   300
147
1.0
148
0.0
149
0.0
100
AcDbLayout
  1
Layout 24
 70
     1
 71
    22
 10
0.0
 20
0.0
 11
0.0
 21
0.0
 12
0.0
 22
0.0
 32
0.0
 14
0.0
 24
0.0
 34
0.0
 15
0.0
 25
0.0
 35
0.0
146
0.0
 13
0.0
 23
0.0
 33
0.0
 16
1.0
 26
0.0
 36
0.0
 17
0.0
 27
1.0
 37
0.0
 76
     0
330
1CB
331
1CF
  0
LAYOUT
  5
1D2
102
{ACAD_REACTORS
330
1A
102
}
330
1A
100
AcDbPlotSettings
  1

  2
none_device
  4
ANSI_A_(11.00_x_8.50_Inches)
  6

 40
6.35
 41
19.05
 42
6.35000508
 43
19.05000254
 44
279.4
 45
215.9
 46
0.0
 47
0.0
 48
0.0
 49
0.0
140
0.0
141
0.0
142
1.0
143
1.0
 70
   688
 72
     0
 73
     1
 74
     5
  7

 75
    16
 76
     0
 77
     2
 78
   300
147
1.0
148
0.0
149
0.0
100
AcDbLayout
  1
Layout 25
 70
     1
 71
    23
 10
0.0
 20
0.0
 11
0.0
 21
0.0
 12
0.0
 22
0.0
 32
0.0
 14
0.0
 24
0.0
 34
0.0
 15
0.0
 25
0.0
 35
0.0
146
0.0
 13
0.0
 23
0.0
 33
0.0
 16
1.0
 26
0.0
 36
0.0
 17
0.0
 27
1.0
 37
0.0
 76
     0
330
1D1
331
1D5
  0
LAYOUT
  5
1D8
102
{ACAD_REACTORS
330
1A
102
}
330
1A
100
AcDbPlotSettings
  1

  2
none_device
  4
ANSI_A_(11.00_x_8.50_Inches)
  6

 40
6.35
 41
19.05
 42
6.35000508
 43
19.05000254
 44
279.4
 45
215.9
 46
0.0
 47
0.0
 48
0.0
 49
0.0
140
0.0
141
0.0
142
1.0
143
1.0
 70
   688
 72
     0
 73
     1
 74
     5
  7

 75
    16
 76
     0
 77
     2
 78
   300
147
1.0
148
0.0
149
0.0
100
AcDbLayout
  1
Layout 26
 70
     1
 71
    24
 10
0.0
 20
0.0
 11
0.0
 21
0.0
 12
0.0
 22
0.0
 32
0.0
 14
0.0
 24
0.0
 34
0.0
 15
0.0
 25
0.0
 35
0.0
146
0.0
 13
0.0
 23
0.0
 33
0.0
 16
1.0
 26
0.0
 36
0.0
 17
0.0
 27
1.0
 37
0.0
 76
     0
330
1D7
331
1DB
  0
LAYOUT
  5
1DE
102
{ACAD_REACTORS
330
1A
102
}
330
1A
100
AcDbPlotSettings
  1

  2
none_device
  4
ANSI_A_(11.00_x_8.50_Inches)
  6

 40
6.35
 41
19.05
 42
6.35000508
 43
19.05000254
 44
279.4
 45
215.9
 46
0.0
 47
0.0
 48
0.0
 49
0.0
140
0.0
141
0.0
142
1.0
143
1.0
 70
   688
 72
     0
 73
     1
 74
     5
  7

 75
    16
 76
     0
 77
     2
 78
   300
147
1.0
148
0.0
149
0.0
100
AcDbLayout
  1
Layout 27
 70
     1
 71
    25
 10
0.0
 20
0.0
 11
0.0
 21
0.0
 12
0.0
 22
0.0
 32
0.0
 14
0.0
 24
0.0
 34
0.0
 15
0.0
 25
0.0
 35
0.0
146
0.0
 13
0.0
 23
0.0
 33
0.0
 16
1.0
 26
0.0
 36
0.0
 17
0.0
 27
1.0
 37
0.0
 76
     0
330
1DD
331
1E1
  0
LAYOUT
  5
1E4
102
{ACAD_REACTORS
330
1A
102
}
330
1A
100
AcDbPlotSettings
  1

  2
none_device
  4
ANSI_A_(11.00_x_8.50_Inches)
  6

 40
6.35
 41
19.05
 42
6.35000508
 43
19.05000254
 44
279.4
 45
215.9
 46
0.0
 47
0.0
 48
0.0
 49
0.0
140
0.0
141
0.0
142
1.0
143
1.0
 70
   688
 72
     0
 73
     1
 74
     5
  7

 75
    16
 76
     0
 77
     2
 78
   300
147
1.0
148
0.0
149
0.0
100
AcDbLayout
  1
Layout 28
 70
     1
 71
    26
 10
0.0
 20
0.0
 11
0.0
 21
0.0
 12
0.0
 22
0.0
 32
0.0
 14
0.0
 24
0.0
 34
0.0
 15
0.0
 25
0.0
 35
0.0
146
0.0
 13
0.0
 23
0.0
 33
0.0
 16
1.0
 26
0.0
 36
0.0
 17
0.0
 27
1.0
 37
0.0
 76
     0
330
1E3
331
1E7
  0
LAYOUT
  5
1EA
102
{ACAD_REACTORS
330
1A
102
}
330
1A
100
AcDbPlotSettings
  1

  2
none_device
  4
ANSI_A_(11.00_x_8.50_Inches)
  6

 40
6.35
 41
19.05
 42
6.35000508
 43
19.05000254
 44
279.4
 45
215.9
 46
0.0
 47
0.0
 48
0.0
 49
0.0
140
0.0
141
0.0
142
1.0
143
1.0
 70
   688
 72
     0
 73
     1
 74
     5
  7

 75
    16
 76
     0
 77
     2
 78
   300
147
1.0
148
0.0
149
0.0
100
AcDbLayout
  1
Layout 29
 70
     1
 71
    27
 10
0.0
 20
0.0
 11
0.0
 21
0.0
 12
0.0
 22
0.0
 32
0.0
 14
0.0
 24
0.0
 34
0.0
 15
0.0
 25
0.0
 35
0.0
146
0.0
 13
0.0
 23
0.0
 33
0.0
 16
1.0
 26
0.0
 36
0.0
 17
0.0
 27
1.0
 37
0.0
 76
     0
330
1E9
331
1ED
  0
LAYOUT
  5
1F0
102
{ACAD_REACTORS
330
1A
102
}
330
1A
100
AcDbPlotSettings
  1

  2
none_device
  4
ANSI_A_(11.00_x_8.50_Inches)
  6

 40
6.35
 41
19.05
 42
6.35000508
 43
19.05000254
 44
279.4
 45
215.9
 46
0.0
 47
0.0
 48
0.0
 49
0.0
140
0.0
141
0.0
142
1.0
143
1.0
 70
   688
 72
     0
 73
     1
 74
     5
  7

 75
    16
 76
     0
 77
     2
 78
   300
147
1.0
148
0.0
149
0.0
100
AcDbLayout
  1
Layout 30
 70
     1
 71
    28
 10
0.0
 20
0.0
 11
0.0
 21
0.0
 12
0.0
 22
0.0
 32
0.0
 14
0.0
 24
0.0
 34
0.0
 15
0.0
 25
0.0
 35
0.0
146
0.0
 13
0.0
 23
0.0
 33
0.0
 16
1.0
 26
0.0
 36
0.0
 17
0.0
 27
1.0
 37
0.0
 76
     0
330
1EF
331
1F3
  0
LAYOUT
  5
1F6
102
{ACAD_REACTORS
330
1A
102
}
330
1A
100
AcDbPlotSettings
  1

  2
none_device
  4
ANSI_A_(11.00_x_8.50_Inches)
  6

 40
6.35
 41
19.05
 42
6.35000508
 43
19.05000254
 44
279.4
 45
215.9
 46
0.0
 47
0.0
 48
0.0
 49
0.0
140
0.0
141
0.0
142
1.0
143
1.0
 70
   688
 72
     0
 73
     1
 74
     5
  7

 75
    16
 76
     0
 77
     2
 78
   300
147
1.0
148
0.0
149
0.0
100
AcDbLayout
  1
Layout 31
 70
     1
 71
    29
 10
0.0
 20
0.0
 11
0.0
 21
0.0
 12
0.0
 22
0.0
 32
0.0
 14
0.0
 24
0.0
 34
0.0
 15
0.0
 25
0.0
 35
0.0
146
0.0
 13
0.0
 23
0.0
 33
0.0
 16
1.0
 26
0.0
 36
0.0
 17
0.0
 27
1.0
 37
0.0
 76
     0
330
1F5
331
1F9
  0
LAYOUT
  5
1FC
102
{ACAD_REACTORS
330
1A
102
}
330
1A
100
AcDbPlotSettings
  1

  2
none_device
  4
ANSI_A_(11.00_x_8.50_Inches)
  6

 40
6.35
 41
19.05
 42
6.35000508
 43
19.05000254
 44
279.4
 45
215.9
 46
0.0
 47
0.0
 48
0.0
 49
0.0
140
0.0
141
0.0
142
1.0
143
1.0
 70
   688
 72
     0
 73
     1
 74
     5
  7

 75
    16
 76
     0
 77
     2
 78
   300
147
1.0
148
0.0
149
0.0
100
AcDbLayout
  1
Layout 32
 70
     1
 71
    30
 10
0.0
 20
0.0
 11
0.0
 21
0.0
 12
0.0
 22
0.0
 32
0.0
 14
0.0
 24
0.0
 34
0.0
 15
0.0
 25
0.0
 35
0.0
146
0.0
 13
0.0
 23
0.0
 33
0.0
 16
1.0
 26
0.0
 36
0.0
 17
0.0
 27
1.0
 37
0.0
 76
     0
330
1FB
331
1FF
  0
LAYOUT
  5
202
102
{ACAD_REACTORS
330
1A
102
}
330
1A
100
AcDbPlotSettings
  1

  2
none_device
  4
ANSI_A_(11.00_x_8.50_Inches)
  6

 40
6.35
 41
19.05
 42
6.35000508
 43
19.05000254
 44
279.4
 45
215.9
 46
0.0
 47
0.0
 48
0.0
 49
0.0
140
0.0
141
0.0
142
1.0
143
1.0
 70
   688
 72
     0
 73
     1
 74
     5
  7

 75
    16
 76
     0
 77
     2
 78
   300
147
1.0
148
0.0
149
0.0
100
AcDbLayout
  1
Layout 33
 70
     1
 71
    31
 10
0.0
 20
0.0
 11
0.0
 21
0.0
 12
0.0
 22
0.0
 32
0.0
 14
0.0
 24
0.0
 34
0.0
 15
0.0
 25
0.0
 35
0.0
146
0.0
 13
0.0
 23
0.0
 33
0.0
 16
1.0
 26
0.0
 36
0.0
 17
0.0
 27
1.0
 37
0.0
 76
     0
330
201
331
205
  0
LAYOUT
  5
22
102
{ACAD_REACTORS
330
1A
102
}
330
1A
100
AcDbPlotSettings
  1

  2
none_device
  4

  6

 40
0.0
 41
0.0
 42
0.0
 43
0.0
 44
0.0
 45
0.0
 46
0.0
 47
0.0
 48
0.0
 49
0.0
140
0.0
141
0.0
142
1.0
143
1.0
 70
  1712
 72
     0
 73
     0
 74
     0
  7

 75
     0
 76
     0
 77
     2
 78
   300
147
1.0
148
0.0
149
0.0
100
AcDbLayout
  1
Model
 70
     1
 71
     0
 10
0.0
 20
0.0
 11
12.0
 21
9.0
 12
0.0
 22
0.0
 32
0.0
 14
1.000000000000000E+20
 24
1.000000000000000E+20
 34
1.000000000000000E+20
 15
-1.000000000000000E+20
 25
-1.000000000000000E+20
 35
-1.000000000000000E+20
146
0.0
 13
0.0
 23
0.0
 33
0.0
 16
1.0
 26
0.0
 36
0.0
 17
0.0
 27
1.0
 37
0.0
 76
     0
330
1F
331
29
  0
LAYOUT
  5
178
102
{ACAD_REACTORS
330
1A
102
}
330
1A
100
AcDbPlotSettings
  1

  2
none_device
  4
ANSI_A_(11.00_x_8.50_Inches)
  6

 40
6.35
 41
19.05
 42
6.35000508
 43
19.05000254
 44
279.4
 45
215.9
 46
0.0
 47
0.0
 48
0.0
 49
0.0
140
0.0
141
0.0
142
1.0
143
1.0
 70
   688
 72
     0
 73
     1
 74
     5
  7

 75
    16
 76
     0
 77
     2
 78
   300
147
1.0
148
0.0
149
0.0
100
AcDbLayout
  1
new roof
 70
     1
 71
     8
 10
0.0
 20
0.0
 11
0.0
 21
0.0
 12
0.0
 22
0.0
 32
0.0
 14
0.0
 24
0.0
 34
0.0
 15
0.0
 25
0.0
 35
0.0
146
0.0
 13
0.0
 23
0.0
 33
0.0
 16
1.0
 26
0.0
 36
0.0
 17
0.0
 27
1.0
 37
0.0
 76
     0
330
177
331
17B
  0
LAYOUT
  5
160
102
{ACAD_REACTORS
330
1A
102
}
330
1A
100
AcDbPlotSettings
  1

  2
none_device
  4
ANSI_A_(11.00_x_8.50_Inches)
  6

 40
6.35
 41
19.05
 42
6.35000508
 43
19.05000254
 44
279.4
 45
215.9
 46
0.0
 47
0.0
 48
0.0
 49
0.0
140
0.0
141
0.0
142
1.0
143
1.0
 70
   688
 72
     0
 73
     1
 74
     5
  7

 75
    16
 76
     0
 77
     2
 78
   300
147
1.0
148
0.0
149
0.0
100
AcDbLayout
  1
new work
 70
     1
 71
     4
 10
0.0
 20
0.0
 11
0.0
 21
0.0
 12
0.0
 22
0.0
 32
0.0
 14
0.0
 24
0.0
 34
0.0
 15
0.0
 25
0.0
 35
0.0
146
0.0
 13
0.0
 23
0.0
 33
0.0
 16
1.0
 26
0.0
 36
0.0
 17
0.0
 27
1.0
 37
0.0
 76
     0
330
15F
331
163
  0
LAYOUT
  5
18A
102
{ACAD_REACTORS
330
1A
102
}
330
1A
100
AcDbPlotSettings
  1

  2
none_device
  4
ANSI_A_(11.00_x_8.50_Inches)
  6

 40
6.35
 41
19.05
 42
6.35000508
 43
19.05000254
 44
279.4
 45
215.9
 46
0.0
 47
0.0
 48
0.0
 49
0.0
140
0.0
141
0.0
142
1.0
143
1.0
 70
   688
 72
     0
 73
     1
 74
     5
  7

 75
    16
 76
     0
 77
     2
 78
   300
147
1.0
148
0.0
149
0.0
100
AcDbLayout
  1
Setup 10
 70
     1
 71
    11
 10
0.0
 20
0.0
 11
0.0
 21
0.0
 12
0.0
 22
0.0
 32
0.0
 14
0.0
 24
0.0
 34
0.0
 15
0.0
 25
0.0
 35
0.0
146
0.0
 13
0.0
 23
0.0
 33
0.0
 16
1.0
 26
0.0
 36
0.0
 17
0.0
 27
1.0
 37
0.0
 76
     0
330
189
331
18D
  0
LAYOUT
  5
190
102
{ACAD_REACTORS
330
1A
102
}
330
1A
100
AcDbPlotSettings
  1

  2
none_device
  4
ANSI_A_(11.00_x_8.50_Inches)
  6

 40
6.35
 41
19.05
 42
6.35000508
 43
19.05000254
 44
279.4
 45
215.9
 46
0.0
 47
0.0
 48
0.0
 49
0.0
140
0.0
141
0.0
142
1.0
143
1.0
 70
   688
 72
     0
 73
     1
 74
     5
  7

 75
    16
 76
     0
 77
     2
 78
   300
147
1.0
148
0.0
149
0.0
100
AcDbLayout
  1
Setup 11
 70
     1
 71
    12
 10
0.0
 20
0.0
 11
0.0
 21
0.0
 12
0.0
 22
0.0
 32
0.0
 14
0.0
 24
0.0
 34
0.0
 15
0.0
 25
0.0
 35
0.0
146
0.0
 13
0.0
 23
0.0
 33
0.0
 16
1.0
 26
0.0
 36
0.0
 17
0.0
 27
1.0
 37
0.0
 76
     0
330
18F
331
193
  0
LAYOUT
  5
196
102
{ACAD_REACTORS
330
1A
102
}
330
1A
100
AcDbPlotSettings
  1

  2
none_device
  4
ANSI_A_(11.00_x_8.50_Inches)
  6

 40
6.35
 41
19.05
 42
6.35000508
 43
19.05000254
 44
279.4
 45
215.9
 46
0.0
 47
0.0
 48
0.0
 49
0.0
140
0.0
141
0.0
142
1.0
143
1.0
 70
   688
 72
     0
 73
     1
 74
     5
  7

 75
    16
 76
     0
 77
     2
 78
   300
147
1.0
148
0.0
149
0.0
100
AcDbLayout
  1
Setup 12
 70
     1
 71
    13
 10
0.0
 20
0.0
 11
0.0
 21
0.0
 12
0.0
 22
0.0
 32
0.0
 14
0.0
 24
0.0
 34
0.0
 15
0.0
 25
0.0
 35
0.0
146
0.0
 13
0.0
 23
0.0
 33
0.0
 16
1.0
 26
0.0
 36
0.0
 17
0.0
 27
1.0
 37
0.0
 76
     0
330
195
331
199
  0
LAYOUT
  5
19C
102
{ACAD_REACTORS
330
1A
102
}
330
1A
100
AcDbPlotSettings
  1

  2
none_device
  4
ANSI_A_(11.00_x_8.50_Inches)
  6

 40
6.35
 41
19.05
 42
6.35000508
 43
19.05000254
 44
279.4
 45
215.9
 46
0.0
 47
0.0
 48
0.0
 49
0.0
140
0.0
141
0.0
142
1.0
143
1.0
 70
   688
 72
     0
 73
     1
 74
     5
  7

 75
    16
 76
     0
 77
     2
 78
   300
147
1.0
148
0.0
149
0.0
100
AcDbLayout
  1
Setup 13
 70
     1
 71
    14
 10
0.0
 20
0.0
 11
0.0
 21
0.0
 12
0.0
 22
0.0
 32
0.0
 14
0.0
 24
0.0
 34
0.0
 15
0.0
 25
0.0
 35
0.0
146
0.0
 13
0.0
 23
0.0
 33
0.0
 16
1.0
 26
0.0
 36
0.0
 17
0.0
 27
1.0
 37
0.0
 76
     0
330
19B
331
19F
  0
LAYOUT
  5
1A2
102
{ACAD_REACTORS
330
1A
102
}
330
1A
100
AcDbPlotSettings
  1

  2
none_device
  4
ANSI_A_(11.00_x_8.50_Inches)
  6

 40
6.35
 41
19.05
 42
6.35000508
 43
19.05000254
 44
279.4
 45
215.9
 46
0.0
 47
0.0
 48
0.0
 49
0.0
140
0.0
141
0.0
142
1.0
143
1.0
 70
   688
 72
     0
 73
     1
 74
     5
  7

 75
    16
 76
     0
 77
     2
 78
   300
147
1.0
148
0.0
149
0.0
100
AcDbLayout
  1
Setup 14
 70
     1
 71
    15
 10
0.0
 20
0.0
 11
0.0
 21
0.0
 12
0.0
 22
0.0
 32
0.0
 14
0.0
 24
0.0
 34
0.0
 15
0.0
 25
0.0
 35
0.0
146
0.0
 13
0.0
 23
0.0
 33
0.0
 16
1.0
 26
0.0
 36
0.0
 17
0.0
 27
1.0
 37
0.0
 76
     0
330
1A1
331
1A5
  0
LAYOUT
  5
1A8
102
{ACAD_REACTORS
330
1A
102
}
330
1A
100
AcDbPlotSettings
  1

  2
none_device
  4
ANSI_A_(11.00_x_8.50_Inches)
  6

 40
6.35
 41
19.05
 42
6.35000508
 43
19.05000254
 44
279.4
 45
215.9
 46
0.0
 47
0.0
 48
0.0
 49
0.0
140
0.0
141
0.0
142
1.0
143
1.0
 70
   688
 72
     0
 73
     1
 74
     5
  7

 75
    16
 76
     0
 77
     2
 78
   300
147
1.0
148
0.0
149
0.0
100
AcDbLayout
  1
Setup 15
 70
     1
 71
    16
 10
0.0
 20
0.0
 11
0.0
 21
0.0
 12
0.0
 22
0.0
 32
0.0
 14
0.0
 24
0.0
 34
0.0
 15
0.0
 25
0.0
 35
0.0
146
0.0
 13
0.0
 23
0.0
 33
0.0
 16
1.0
 26
0.0
 36
0.0
 17
0.0
 27
1.0
 37
0.0
 76
     0
330
1A7
331
1AB
  0
LAYOUT
  5
14E
102
{ACAD_REACTORS
330
1A
102
}
330
1A
100
AcDbPlotSettings
  1

  2
none_device
  4
ANSI_A_(11.00_x_8.50_Inches)
  6

 40
6.35
 41
19.05
 42
6.35000508
 43
19.05000254
 44
279.4
 45
215.9
 46
0.0
 47
0.0
 48
0.0
 49
0.0
140
0.0
141
0.0
142
1.0
143
1.0
 70
   688
 72
     0
 73
     1
 74
     5
  7

 75
    16
 76
     0
 77
     2
 78
   300
147
1.0
148
0.0
149
0.0
100
AcDbLayout
  1
Working Layout
 70
     1
 71
     1
 10
-0.25
 20
-0.25
 11
10.75
 21
8.25
 12
0.0
 22
0.0
 32
0.0
 14
0.0
 24
0.0
 34
0.0
 15
0.0
 25
0.0
 35
0.0
146
0.0
 13
0.0
 23
0.0
 33
0.0
 16
1.0
 26
0.0
 36
0.0
 17
0.0
 27
1.0
 37
0.0
 76
     0
330
14D
331
151
  0
LAYOUT
  5
184
102
{ACAD_REACTORS
330
1A
102
}
330
1A
100
AcDbPlotSettings
  1

  2
none_device
  4
ANSI_A_(11.00_x_8.50_Inches)
  6

 40
6.35
 41
19.05
 42
6.35000508
 43
19.05000254
 44
279.4
 45
215.9
 46
0.0
 47
0.0
 48
0.0
 49
0.0
140
0.0
141
0.0
142
1.0
143
1.0
 70
   688
 72
     0
 73
     1
 74
     5
  7

 75
    16
 76
     0
 77
     2
 78
   300
147
1.0
148
0.0
149
0.0
100
AcDbLayout
  1
X
 70
     1
 71
    10
 10
0.0
 20
0.0
 11
0.0
 21
0.0
 12
0.0
 22
0.0
 32
0.0
 14
0.0
 24
0.0
 34
0.0
 15
0.0
 25
0.0
 35
0.0
146
0.0
 13
0.0
 23
0.0
 33
0.0
 16
1.0
 26
0.0
 36
0.0
 17
0.0
 27
1.0
 37
0.0
 76
     0
330
183
331
187
  0
MATERIAL
  5
3D
102
{ACAD_REACTORS
330
3B
102
}
330
3B
100
AcDbMaterial
  1
ByBlock
 72
     1
 94
      127
  0
MATERIAL
  5
3C
102
{ACAD_REACTORS
330
3B
102
}
330
3B
100
AcDbMaterial
  1
ByLayer
 72
     1
 94
      127
  0
MATERIAL
  5
3E
102
{ACAD_REACTORS
330
3B
102
}
330
3B
100
AcDbMaterial
  1
Global
 72
     1
 94
      127
  0
MLINESTYLE
  5
18
102
{ACAD_REACTORS
330
17
102
}
330
17
100
AcDbMlineStyle
  2
Standard
 70
     0
  3

 62
   256
 51
90.0
 52
90.0
 71
     2
 49
0.5
 62
   256
  6
BYLAYER
 49
-0.5
 62
   256
  6
BYLAYER
  0
ACDBPLACEHOLDER
  5
F
102
{ACAD_REACTORS
330
E
102
}
330
E
  0
SCALE
  5
208
102
{ACAD_REACTORS
330
207
102
}
330
207
100
AcDbScale
 70
     0
300
1:1
140
1.0
141
1.0
290
     1
  0
SCALE
  5
209
102
{ACAD_REACTORS
330
207
102
}
330
207
100
AcDbScale
 70
     0
300
1:2
140
1.0
141
2.0
290
     0
  0
SCALE
  5
20A
102
{ACAD_REACTORS
330
207
102
}
330
207
100
AcDbScale
 70
     0
300
1:4
140
1.0
141
4.0
290
     0
  0
SCALE
  5
20B
102
{ACAD_REACTORS
330
207
102
}
330
207
100
AcDbScale
 70
     0
300
1:5
140
1.0
141
5.0
290
     0
  0
SCALE
  5
20C
102
{ACAD_REACTORS
330
207
102
}
330
207
100
AcDbScale
 70
     0
300
1:8
140
1.0
141
8.0
290
     0
  0
SCALE
  5
20D
102
{ACAD_REACTORS
330
207
102
}
330
207
100
AcDbScale
 70
     0
300
1:10
140
1.0
141
10.0
290
     0
  0
SCALE
  5
20E
102
{ACAD_REACTORS
330
207
102
}
330
207
100
AcDbScale
 70
     0
300
1:16
140
1.0
141
16.0
290
     0
  0
SCALE
  5
20F
102
{ACAD_REACTORS
330
207
102
}
330
207
100
AcDbScale
 70
     0
300
1:20
140
1.0
141
20.0
290
     0
  0
SCALE
  5
210
102
{ACAD_REACTORS
330
207
102
}
330
207
100
AcDbScale
 70
     0
300
1:30
140
1.0
141
30.0
290
     0
  0
SCALE
  5
211
102
{ACAD_REACTORS
330
207
102
}
330
207
100
AcDbScale
 70
     0
300
1:40
140
1.0
141
40.0
290
     0
  0
SCALE
  5
212
102
{ACAD_REACTORS
330
207
102
}
330
207
100
AcDbScale
 70
     0
300
1:50
140
1.0
141
50.0
290
     0
  0
SCALE
  5
213
102
{ACAD_REACTORS
330
207
102
}
330
207
100
AcDbScale
 70
     0
300
1:100
140
1.0
141
100.0
290
     0
  0
SCALE
  5
214
102
{ACAD_REACTORS
330
207
102
}
330
207
100
AcDbScale
 70
     0
300
2:1
140
2.0
141
1.0
290
     0
  0
SCALE
  5
215
102
{ACAD_REACTORS
330
207
102
}
330
207
100
AcDbScale
 70
     0
300
4:1
140
4.0
141
1.0
290
     0
  0
SCALE
  5
216
102
{ACAD_REACTORS
330
207
102
}
330
207
100
AcDbScale
 70
     0
300
8:1
140
8.0
141
1.0
290
     0
  0
SCALE
  5
217
102
{ACAD_REACTORS
330
207
102
}
330
207
100
AcDbScale
 70
     0
300
10:1
140
10.0
141
1.0
290
     0
  0
SCALE
  5
218
102
{ACAD_REACTORS
330
207
102
}
330
207
100
AcDbScale
 70
     0
300
100:1
140
100.0
141
1.0
290
     0
  0
SCALE
  5
219
102
{ACAD_REACTORS
330
207
102
}
330
207
100
AcDbScale
 70
     0
300
1/128" = 1'-0"
140
0.0078125
141
12.0
290
     0
  0
SCALE
  5
21A
102
{ACAD_REACTORS
330
207
102
}
330
207
100
AcDbScale
 70
     0
300
1/64" = 1'-0"
140
0.015625
141
12.0
290
     0
  0
SCALE
  5
21B
102
{ACAD_REACTORS
330
207
102
}
330
207
100
AcDbScale
 70
     0
300
1/32" = 1'-0"
140
0.03125
141
12.0
290
     0
  0
SCALE
  5
21C
102
{ACAD_REACTORS
330
207
102
}
330
207
100
AcDbScale
 70
     0
300
1/16" = 1'-0"
140
0.0625
141
12.0
290
     0
  0
SCALE
  5
21D
102
{ACAD_REACTORS
330
207
102
}
330
207
100
AcDbScale
 70
     0
300
3/32" = 1'-0"
140
0.09375
141
12.0
290
     0
  0
SCALE
  5
21E
102
{ACAD_REACTORS
330
207
102
}
330
207
100
AcDbScale
 70
     0
300
1/8" = 1'-0"
140
0.125
141
12.0
290
     0
  0
SCALE
  5
21F
102
{ACAD_REACTORS
330
207
102
}
330
207
100
AcDbScale
 70
     0
300
3/16" = 1'-0"
140
0.1875
141
12.0
290
     0
  0
SCALE
  5
220
102
{ACAD_REACTORS
330
207
102
}
330
207
100
AcDbScale
 70
     0
300
1/4" = 1'-0"
140
0.25
141
12.0
290
     0
  0
SCALE
  5
221
102
{ACAD_REACTORS
330
207
102
}
330
207
100
AcDbScale
 70
     0
300
3/8" = 1'-0"
140
0.375
141
12.0
290
     0
  0
SCALE
  5
222
102
{ACAD_REACTORS
330
207
102
}
330
207
100
AcDbScale
 70
     0
300
1/2" = 1'-0"
140
0.5
141
12.0
290
     0
  0
SCALE
  5
223
102
{ACAD_REACTORS
330
207
102
}
330
207
100
AcDbScale
 70
     0
300
3/4" = 1'-0"
140
0.75
141
12.0
290
     0
  0
SCALE
  5
224
102
{ACAD_REACTORS
330
207
102
}
330
207
100
AcDbScale
 70
     0
300
1" = 1'-0"
140
1.0
141
12.0
290
     0
  0
SCALE
  5
225
102
{ACAD_REACTORS
330
207
102
}
330
207
100
AcDbScale
 70
     0
300
1-1/2" = 1'-0"
140
1.5
141
12.0
290
     0
  0
SCALE
  5
226
102
{ACAD_REACTORS
330
207
102
}
330
207
100
AcDbScale
 70
     0
300
3" = 1'-0"
140
3.0
141
12.0
290
     0
  0
SCALE
  5
227
102
{ACAD_REACTORS
330
207
102
}
330
207
100
AcDbScale
 70
     0
300
6" = 1'-0"
140
6.0
141
12.0
290
     0
  0
SCALE
  5
228
102
{ACAD_REACTORS
330
207
102
}
330
207
100
AcDbScale
 70
     0
300
1'-0" = 1'-0"
140
12.0
141
12.0
290
     0
  0
VISUALSTYLE
  5
2F
102
{ACAD_REACTORS
330
2A
102
}
330
2A
100
AcDbVisualStyle
  2
2dWireframe
 70
     4
177
     2
291
     0
 71
     0
176
     1
 72
     2
176
     1
 73
     0
176
     1
 90
        0
176
     1
 40
-0.6
176
     1
 41
-30.0
176
     1
 62
     5
 63
     7
421
 16777215
176
     1
 74
     1
176
     1
 91
        4
176
     1
 64
     7
176
     1
 65
   257
176
     1
 75
     1
176
     1
175
     1
176
     1
 42
1.0
176
     1
 92
        0
176
     1
 66
   257
176
     1
 43
1.0
176
     1
 76
     1
176
     1
 77
     6
176
     1
 78
     2
176
     1
 67
     7
176
     1
 79
     5
176
     1
170
     0
176
     1
171
     0
176
     1
290
     0
176
     1
 93
        1
176
     1
 44
0.0
176
     1
173
     0
176
     1
  0
VISUALSTYLE
  5
31
102
{ACAD_REACTORS
330
2A
102
}
330
2A
100
AcDbVisualStyle
  2
3D Hidden
 70
     6
177
     2
291
     0
 71
     1
176
     1
 72
     2
176
     1
 73
     2
176
     1
 90
        0
176
     1
 40
-0.6
176
     1
 41
-30.0
176
     1
 62
     5
 63
     7
421
 16777215
176
     1
 74
     2
176
     1
 91
        2
176
     1
 64
     7
176
     1
 65
   257
176
     1
 75
     2
176
     1
175
     1
176
     1
 42
40.0
176
     1
 92
        0
176
     1
 66
   257
176
     1
 43
1.0
176
     1
 76
     1
176
     1
 77
     6
176
     1
 78
     2
176
     1
 67
     7
176
     1
 79
     3
176
     1
170
     0
176
     1
171
     0
176
     1
290
     0
176
     1
 93
        1
176
     1
 44
0.0
176
     1
173
     0
176
     1
  0
VISUALSTYLE
  5
30
102
{ACAD_REACTORS
330
2A
102
}
330
2A
100
AcDbVisualStyle
  2
3dWireframe
 70
     5
177
     2
291
     0
 71
     0
176
     1
 72
     2
176
     1
 73
     0
176
     1
 90
        0
176
     1
 40
-0.6
176
     1
 41
-30.0
176
     1
 62
     5
 63
     7
421
 16777215
176
     1
 74
     1
176
     1
 91
        4
176
     1
 64
     7
176
     1
 65
   257
176
     1
 75
     1
176
     1
175
     1
176
     1
 42
1.0
176
     1
 92
        0
176
     1
 66
   257
176
     1
 43
1.0
176
     1
 76
     1
176
     1
 77
     6
176
     1
 78
     2
176
     1
 67
     7
176
     1
 79
     5
176
     1
170
     0
176
     1
171
     0
176
     1
290
     0
176
     1
 93
        1
176
     1
 44
0.0
176
     1
173
     0
176
     1
  0
VISUALSTYLE
  5
32
102
{ACAD_REACTORS
330
2A
102
}
330
2A
100
AcDbVisualStyle
  2
Basic
 70
     7
177
     2
291
     1
 71
     1
176
     1
 72
     0
176
     1
 73
     1
176
     1
 90
        0
176
     1
 40
-0.6
176
     1
 41
-30.0
176
     1
 62
     5
 63
     7
421
 16777215
176
     1
 74
     0
176
     1
 91
        4
176
     1
 64
     7
176
     1
 65
   257
176
     1
 75
     1
176
     1
175
     1
176
     1
 42
1.0
176
     1
 92
        8
176
     1
 66
     7
176
     1
 43
1.0
176
     1
 76
     1
176
     1
 77
     6
176
     1
 78
     2
176
     1
 67
     7
176
     1
 79
     5
176
     1
170
     0
176
     1
171
     0
176
     1
290
     0
176
     1
 93
        1
176
     1
 44
0.0
176
     1
173
     0
176
     1
  0
VISUALSTYLE
  5
36
102
{ACAD_REACTORS
330
2A
102
}
330
2A
100
AcDbVisualStyle
  2
Brighten
 70
    12
177
     2
291
     1
 71
     2
176
     1
 72
     2
176
     1
 73
     0
176
     1
 90
        0
176
     1
 40
-0.6
176
     1
 41
-30.0
176
     1
 62
     5
 63
     7
421
 16777215
176
     1
 74
     1
176
     1
 91
        4
176
     1
 64
     7
176
     1
 65
   257
176
     1
 75
     1
176
     1
175
     1
176
     1
 42
1.0
176
     1
 92
        8
176
     1
 66
     7
176
     1
 43
1.0
176
     1
 76
     1
176
     1
 77
     6
176
     1
 78
     2
176
     1
 67
     7
176
     1
 79
     5
176
     1
170
     0
176
     1
171
     0
176
     1
290
     0
176
     1
 93
        1
176
     1
 44
50.0
176
     1
173
     0
176
     1
  0
VISUALSTYLE
  5
3A
102
{ACAD_REACTORS
330
2A
102
}
330
2A
100
AcDbVisualStyle
  2
ColorChange
 70
    16
177
     2
291
     1
 71
     2
176
     1
 72
     2
176
     1
 73
     3
176
     1
 90
        0
176
     1
 40
-0.6
176
     1
 41
-30.0
176
     1
 62
     5
 63
     8
421
  8421504
176
     1
 74
     1
176
     1
 91
        4
176
     1
 64
     7
176
     1
 65
   257
176
     1
 75
     1
176
     1
175
     1
176
     1
 42
1.0
176
     1
 92
        8
176
     1
 66
     8
424
  8421504
176
     1
 43
1.0
176
     1
 76
     1
176
     1
 77
     6
176
     1
 78
     2
176
     1
 67
     7
176
     1
 79
     5
176
     1
170
     0
176
     1
171
     0
176
     1
290
     0
176
     1
 93
        1
176
     1
 44
0.0
176
     1
173
     0
176
     1
  0
VISUALSTYLE
  5
34
102
{ACAD_REACTORS
330
2A
102
}
330
2A
100
AcDbVisualStyle
  2
Conceptual
 70
     9
177
     2
291
     0
 71
     3
176
     1
 72
     2
176
     1
 73
     0
176
     1
 90
        0
176
     1
 40
-0.6
176
     1
 41
-30.0
176
     1
 62
     5
 63
     7
421
 16777215
176
     1
 74
     2
176
     1
 91
        2
176
     1
 64
     7
176
     1
 65
   257
176
     1
 75
     1
176
     1
175
     1
176
     1
 42
40.0
176
     1
 92
        8
176
     1
 66
     7
176
     1
 43
1.0
176
     1
 76
     1
176
     1
 77
     6
176
     1
 78
     2
176
     1
 67
     7
176
     1
 79
     3
176
     1
170
     0
176
     1
171
     0
176
     1
290
     0
176
     1
 93
        1
176
     1
 44
0.0
176
     1
173
     0
176
     1
  0
VISUALSTYLE
  5
35
102
{ACAD_REACTORS
330
2A
102
}
330
2A
100
AcDbVisualStyle
  2
Dim
 70
    11
177
     2
291
     1
 71
     2
176
     1
 72
     2
176
     1
 73
     0
176
     1
 90
        0
176
     1
 40
-0.6
176
     1
 41
-30.0
176
     1
 62
     5
 63
     7
421
 16777215
176
     1
 74
     1
176
     1
 91
        4
176
     1
 64
     7
176
     1
 65
   257
176
     1
 75
     1
176
     1
175
     1
176
     1
 42
1.0
176
     1
 92
        8
176
     1
 66
     7
176
     1
 43
1.0
176
     1
 76
     1
176
     1
 77
     6
176
     1
 78
     2
176
     1
 67
     7
176
     1
 79
     5
176
     1
170
     0
176
     1
171
     0
176
     1
290
     0
176
     1
 93
        1
176
     1
 44
-50.0
176
     1
173
     0
176
     1
  0
VISUALSTYLE
  5
39
102
{ACAD_REACTORS
330
2A
102
}
330
2A
100
AcDbVisualStyle
  2
Facepattern
 70
    15
177
     2
291
     1
 71
     2
176
     1
 72
     2
176
     1
 73
     0
176
     1
 90
        0
176
     1
 40
-0.6
176
     1
 41
-30.0
176
     1
 62
     5
 63
     7
421
 16777215
176
     1
 74
     1
176
     1
 91
        4
176
     1
 64
     7
176
     1
 65
   257
176
     1
 75
     1
176
     1
175
     1
176
     1
 42
1.0
176
     1
 92
        8
176
     1
 66
     7
176
     1
 43
1.0
176
     1
 76
     1
176
     1
 77
     6
176
     1
 78
     2
176
     1
 67
     7
176
     1
 79
     5
176
     1
170
     0
176
     1
171
     0
176
     1
290
     0
176
     1
 93
        1
176
     1
 44
0.0
176
     1
173
     0
176
     1
  0
VISUALSTYLE
  5
2B
102
{ACAD_REACTORS
330
2A
102
}
330
2A
100
AcDbVisualStyle
  2
Flat
 70
     0
177
     2
291
     1
 71
     2
176
     1
 72
     1
176
     1
 73
     1
176
     1
 90
        2
176
     1
 40
-0.6
176
     1
 41
30.0
176
     1
 62
     5
 63
     7
421
 16777215
176
     1
 74
     0
176
     1
 91
        4
176
     1
 64
     7
176
     1
 65
   257
176
     1
 75
     1
176
     1
175
     1
176
     1
 42
1.0
176
     1
 92
        8
176
     1
 66
     7
176
     1
 43
1.0
176
     1
 76
     1
176
     1
 77
     6
176
     1
 78
     2
176
     1
 67
     7
176
     1
 79
     5
176
     1
170
     0
176
     1
171
     0
176
     1
290
     0
176
     1
 93
       13
176
     1
 44
0.0
176
     1
173
     0
176
     1
  0
VISUALSTYLE
  5
2C
102
{ACAD_REACTORS
330
2A
102
}
330
2A
100
AcDbVisualStyle
  2
FlatWithEdges
 70
     1
177
     2
291
     1
 71
     2
176
     1
 72
     1
176
     1
 73
     1
176
     1
 90
        2
176
     1
 40
-0.6
176
     1
 41
30.0
176
     1
 62
     5
 63
     7
421
 16777215
176
     1
 74
     1
176
     1
 91
        4
176
     1
 64
     7
176
     1
 65
   257
176
     1
 75
     1
176
     1
175
     1
176
     1
 42
1.0
176
     1
 92
        0
176
     1
 66
   257
176
     1
 43
1.0
176
     1
 76
     1
176
     1
 77
     6
176
     1
 78
     2
176
     1
 67
     7
176
     1
 79
     5
176
     1
170
     0
176
     1
171
     0
176
     1
290
     0
176
     1
 93
       13
176
     1
 44
0.0
176
     1
173
     0
176
     1
  0
VISUALSTYLE
  5
2D
102
{ACAD_REACTORS
330
2A
102
}
330
2A
100
AcDbVisualStyle
  2
Gouraud
 70
     2
177
     2
291
     1
 71
     2
176
     1
 72
     2
176
     1
 73
     1
176
     1
 90
        2
176
     1
 40
-0.6
176
     1
 41
30.0
176
     1
 62
     5
 63
     7
421
 16777215
176
     1
 74
     0
176
     1
 91
        4
176
     1
 64
     7
176
     1
 65
   257
176
     1
 75
     1
176
     1
175
     1
176
     1
 42
1.0
176
     1
 92
        0
176
     1
 66
     7
176
     1
 43
1.0
176
     1
 76
     1
176
     1
 77
     6
176
     1
 78
     2
176
     1
 67
     7
176
     1
 79
     5
176
     1
170
     0
176
     1
171
     0
176
     1
290
     0
176
     1
 93
       13
176
     1
 44
0.0
176
     1
173
     0
176
     1
  0
VISUALSTYLE
  5
2E
102
{ACAD_REACTORS
330
2A
102
}
330
2A
100
AcDbVisualStyle
  2
GouraudWithEdges
 70
     3
177
     2
291
     1
 71
     2
176
     1
 72
     2
176
     1
 73
     1
176
     1
 90
        2
176
     1
 40
-0.6
176
     1
 41
30.0
176
     1
 62
     5
 63
     7
421
 16777215
176
     1
 74
     1
176
     1
 91
        4
176
     1
 64
     7
176
     1
 65
   257
176
     1
 75
     1
176
     1
175
     1
176
     1
 42
1.0
176
     1
 92
        0
176
     1
 66
   257
176
     1
 43
1.0
176
     1
 76
     1
176
     1
 77
     6
176
     1
 78
     2
176
     1
 67
     7
176
     1
 79
     5
176
     1
170
     0
176
     1
171
     0
176
     1
290
     0
176
     1
 93
       13
176
     1
 44
0.0
176
     1
173
     0
176
     1
  0
VISUALSTYLE
  5
38
102
{ACAD_REACTORS
330
2A
102
}
330
2A
100
AcDbVisualStyle
  2
Linepattern
 70
    14
177
     2
291
     1
 71
     2
176
     1
 72
     2
176
     1
 73
     0
176
     1
 90
        0
176
     1
 40
-0.6
176
     1
 41
-30.0
176
     1
 62
     5
 63
     7
421
 16777215
176
     1
 74
     1
176
     1
 91
        4
176
     1
 64
     7
176
     1
 65
   257
176
     1
 75
     7
176
     1
175
     7
176
     1
 42
1.0
176
     1
 92
        8
176
     1
 66
     7
176
     1
 43
1.0
176
     1
 76
     1
176
     1
 77
     6
176
     1
 78
     2
176
     1
 67
     7
176
     1
 79
     5
176
     1
170
     0
176
     1
171
     0
176
     1
290
     0
176
     1
 93
        1
176
     1
 44
0.0
176
     1
173
     0
176
     1
  0
VISUALSTYLE
  5
33
102
{ACAD_REACTORS
330
2A
102
}
330
2A
100
AcDbVisualStyle
  2
Realistic
 70
     8
177
     2
291
     0
 71
     2
176
     1
 72
     2
176
     1
 73
     0
176
     1
 90
        0
176
     1
 40
-0.6
176
     1
 41
-30.0
176
     1
 62
     5
 63
     7
421
 16777215
176
     1
 74
     1
176
     1
 91
        0
176
     1
 64
     7
176
     1
 65
   257
176
     1
 75
     1
176
     1
175
     1
176
     1
 42
1.0
176
     1
 92
        8
176
     1
 66
     8
424
  7895160
176
     1
 43
1.0
176
     1
 76
     1
176
     1
 77
     6
176
     1
 78
     2
176
     1
 67
     7
176
     1
 79
     5
176
     1
170
     0
176
     1
171
     0
176
     1
290
     0
176
     1
 93
       13
176
     1
 44
0.0
176
     1
173
     0
176
     1
  0
VISUALSTYLE
  5
37
102
{ACAD_REACTORS
330
2A
102
}
330
2A
100
AcDbVisualStyle
  2
Thicken
 70
    13
177
     2
291
     1
 71
     2
176
     1
 72
     2
176
     1
 73
     0
176
     1
 90
        0
176
     1
 40
-0.6
176
     1
 41
-30.0
176
     1
 62
     5
 63
     7
421
 16777215
176
     1
 74
     1
176
     1
 91
        4
176
     1
 64
     7
176
     1
 65
   257
176
     1
 75
     1
176
     1
175
     1
176
     1
 42
1.0
176
     1
 92
       12
176
     1
 66
     7
176
     1
 43
1.0
176
     1
 76
     1
176
     1
 77
     6
176
     1
 78
     2
176
     1
 67
     7
176
     1
 79
     5
176
     1
170
     0
176
     1
171
     0
176
     1
290
     0
176
     1
 93
        1
176
     1
 44
0.0
176
     1
173
     0
176
     1
  0
DICTIONARYVAR
  5
22A
102
{ACAD_REACTORS
330
229
102
}
330
229
100
DictionaryVariables
280
     0
  1
1:1
  0
ENDSEC
  0
EOF
